Nails For Breakfast Tacks For Snacks (ver2) Tab - Panic At The Disco






Panic! At The Disco
Nails for Breakfast, Tacks for Snacks 
A Fever You Can't Sweat Out
Drop D Tuning  (Can be played in Standard)
Tabbed by : Earwood

Updated - July 9th 

Intro 
(Delay)
|--------13-12/-13---------13-12---------13-12/-13---------13-17----|
|----/15-----------------15-----------/15-----------------15----------|
|-14-----------------14------------14-----------------14--------------|
|---------------------------------------------------------------------|
|---------------------------------------------------------------------|
|---------------------------------------------------------------------|

Verse
(Delay)                (Live Version)
|-------------------------------------------------------------------------|
|-------------------------------------------------------------------------|
|-------------------------------------------------------------------------|
|-------------------------------------------------------------------------|
|-5--(5)---12-(12)--7-(7)---8-(8)---5--(5)---12-(12)--7--(7)---8--8)---|
|-------------------------------------------------------------------------|
|                      (For Acoustic)
|-------------------------------------------------------------------------|
|-------------------------------------------------------------------------|
|----------2-2-2-2-----------------------------2-2-2-2--------------------|
|-0-0-0-0--2-2-2-2--2-2-2-2--3-3-3-3--0-0-0-0--2-2-2-2--2-2-2-2--3-3-3-3--|
|-0-0-0-0--0-0-0-0--2-2-2-2--3-3-3-3--0-0-0-0--0-0-0-0--2-2-2-2--3-3-3-3--|
|-0-0-0-0-----------2-2-2-2--3-3-3-3--0-0-0-0-----------2-2-2-2--3-3-3-3--|

PreChorus(Delay)
(The hospice is)
|-3(3)-(3)------------------5------------------5p3------------------------------------|
|-3(3)-(3)-5p3--------------6---5----5---------3---3-(3)-(3)--------------------------|
|-3(3)-(3)-----3(3)-(3)----5---5------5-------3-------------/10-9-10-9-10-9-10-----3-|
|-5(5)(5)----------------5/7-5-5--3-----3/5~--5--------------------------------10--1-|
|-5(5)(5)--------------------------------------------------------------------------1-|
|------------------------------------------------------------------------------------1-|

Chorus
|---------------------------------------------------------------------------|
|---------------------------------------------------------------------------|
|-2-2--2-5-5-5--5/-10-10-10-10-7-7-7---2-2--2-5-5-5--5/-10-10-10-10-7-7--7-|
|-0-0--0h3-3-3--3/-8--8--8--8-5-5-5--0-0--0h3-3-3--3/-8--8--8--8-5-5--5-|
|-0-0--0h3-3-3--3/-8--8--8--8-5-5-5--0-0--0h3-3-3--3/-8-8--8--8-5-5--5-|
|-0-0--0h3-3-3--3/-8--8--8--8-5-5-5--0-0--0h3-3-3--3/-8--8--8--8-5-5--5-|

(Delay)
|--------13-12/-13---------13-12---------13-12/-13---------13-17----|
|----/15----------------/15-----------/15----------------/15----------|
|-14-----------------14------------14-----------------14--------------|
|---------------------------------------------------------------------|
|---------------------------------------------------------------------|
|---------------------------------------------------------------------|

Verse
|--------------------------------------------------------------|
|--------------------------------------------------------------|
|---------2-2-2-2-------------------------2-2-2-2----------3~~-|
|-0-0-0-0-2-2-2-2-2-2-2-2-3-3-3-3-0-0-0-0-2-2-2-2-2-2-2-2--1~~-|
|-0-0-0-0-0-0-0-0-2-2-2-2-3-3-3-3-0-0-0-0-0-0-0-0-2-2-2-2--1~~-|
|-0-0-0-0---------2-2-2-2-3-3-3-3-0-0-0-0---------2-2-2-2--1~~-|

Chorus
|---------------------------------------------------------------------------|
|---------------------------------------------------------------------------|
|-2-2--2-5-5-5--5/-10-10-10-10-7-7-7---2-2--2-5-5-5--5/-10-10-10-10-7-7--7-|
|-0-0--0h3-3-3--3/-8--8--8--8-5-5-5--0-0--0h3-3-3--3/-8--8--8--8-5-5--5-|
|-0-0--0h3-3-3--3/-8--8--8--8-5-5-5--0-0--0h3-3-3--3/-8-8--8--8-5-5--5-|
|-0-0--0h3-3-3--3/-8--8--8--8-5-5-5--0-0--0h3-3-3--3/-8--8--8--8-5-5--5-|

|---------------------------------------------------------------------------|
|---------------------------------------------------------------------------|
|-2-2----5-5-5--5--10-10-10-10-3-3-3-3-2-2--2-5-5-5--5--10-10-10-10-7-7--7-|
|-0-0--0h3-3-3--3/-8--8--8--8-1-1-1-1-0-0--0h3-3-3--3/-8--8--8--8-5-5--5-|
|-0-0--0h3-3-3--3/-8--8--8--8-1-1-1-1-0-0--0h3-3-3--3/-8--8--8--8-5-5--5-|
|-0-0--0h3-3-3--3/-8--8--8--8-1-1-1-1-0-0--0h3-3-3--3/-8--8--8--8-5-5--5-|

Interlude
(Gtr 1) (Delay)
|-------12-10-12-------12-10-|
|----11-------------11-------|
|-/12-----------/12----------|8x 
|----------------------------|
|----------------------------|
|----------------------------|
|(Gtr 2)(Skip first 2 times)                               
|----------------------------|-------------------------------------|
|----------------------------|-------------------------------------|
|(7)-------------------------|(2)---------------(5)----------------|
|-5-5-5-5-5-5-5-5-5----------|-0-0-0-0-0-0-0-0-0-3-3-3-3-3-3-3-3-3-|
|-5-5-5-5-5-5-5-5-5----------|-0-0-0-0-0-0-0-0-0-3-3-3-3-3-3-3-3-3-|
|-5-5-5-5-5-5-5-5-5----------|-0-0-0-0-0-0-0-0-0-3-3-3-3-3-3-3-3-3-|

Chorus
|---------------------------------------------------------------------------|
|---------------------------------------------------------------------------|
|-2-2--2-5-5-5--5/-10-10-10-10-7-7-7---2-2--2-5-5-5--5/-10-10-10-10-7-7--7-|
|-0-0--0h3-3-3--3/-8--8--8--8-5-5-5--0-0--0h3-3-3--3/-8--8--8--8-5-5--5-|
|-0-0--0h3-3-3--3/-8--8--8--8-5-5-5--0-0--0h3-3-3--3/-8-8--8--8-5-5--5-|
|-0-0--0h3-3-3--3/-8--8--8--8-5-5-5--0-0--0h3-3-3--3/-8--8--8--8-5-5--5-|

|---------------------------------------------------------------------------|
|---------------------------------------------------------------------------|
|-2-2----5-5-5--5--10-10-10-10-3-3-3-3-2-2--2-5-5-5--5--10-10-10-10-7-7--7-|
|-0-0--0h3-3-3--3/-8--8--8--8-1-1-1-1-0-0--0h3-3-3--3/-8--8--8--8-5-5--5-|
|-0-0--0h3-3-3--3/-8--8--8--8-1-1-1-1-0-0--0h3-3-3--3/-8--8--8--8-5-5--5-|
|-0-0--0h3-3-3--3/-8--8--8--8-1-1-1-1-0-0--0h3-3-3--3/-8--8--8--8-5-5--5-|

Outro(Delay)
|-3(3)-(3)------------------5------------------5p3---------------------------------|
|-3(3)-(3)-5p3--------------6---5----5---------3---3-(3)-(3)-----------------------|
|-3(3)-(3)-----3(3)-(3)----5---5------5-------3-------------/10-9-10-9-10-9-10----|
|-5(5)(5)----------------5/7-5-5--3-----3/5~--5--------------------------------10-|
|-5(5)(5)-------------------------------------------------------------------------|
|-----------------------------------------------------------------------------------|



Înscrie-te la newsletter


Like us on Facebook