Nails For Breakfast Tacks For Snacks Bass Tab - Panic At The Disco






tabbed by: Valerie L.
e-mail: iloled@yahoo.com

There are two ways to play this song because you can also play it in standard tuning.

You can play this for the techno part which starts at 

Verse (0:13)
G|---------2-2-2-2-----------------|    |------|
D|-0-0-0-0---------2-2-2-2-3-3-3-3-|    |--5~--|
A|---------------------------------|    |------|
D|---------------------------------| x4 |------|

You can also play:
G|---------------------------------|   
D|---------------------------------|   
A|---------0-0-0-0-----------------|    
D|-0-0-0-0---------2-2-2-2-3-3-3-3-|

Break
G|------|
D|------|
A|--6~--|
D|------|

Chorus:
G|--------------------3-------------|
D|---------3-3--3--------------5----|
A|-5-5--5---------1-1---11----------|
D|-------------------------5-5---55-| x2

Verse x4

Chorus:
G|--------------------3-------------|
D|---------3-3--3--------------5----|
A|-5-5--5---------1-1---11----------|
D|-------------------------5-5---55-| x2

third time:
G|-------------------3-------------|
D|--------3-3--3--------------1----|
A|-5-5--5--------1-1---11----------|
D|------------------------1-1---11-| 

repeat chorus once

Bridge:
"I am alone..."
G|-------------------------------------------------------------------------------------|    
D|-------------------------------------------------------------------------------------|    
A|-------------------------------------------------------------------------------------|    
D|-0-0000000-33333333-00000000-33333333-55555555-00000000-33333333-55555555-00000000-3~|

Chorus 
G|--------------------3-------------|
D|---------3-3--3--------------5----|
A|-5-5--5---------1-1---11----------|
D|-------------------------5-5---55-| x2

third time:
G|-------------------3-------------|
D|--------3-3--3--------------1----|
A|-5-5--5--------1-1---11----------|
D|------------------------1-1---11-| 

repeat chorus once 


ĂŽnscrie-te la newsletter


Like us on Facebook