Nails For Breakfast Tacks For Snacks Tab - Panic At The Disco






-------------------------------------------------------------------------------
Nails for Breakfast, Tacks for Snacks (Demo)
                                       Panic! At the Disco
-------------------------------------------------------------------------------

this is a great song off the decaydance/fueled by ramen cd
its a pretty easy song to play too

Tabbed by:Ghostship
Email:brn_bou@yahoo.com

Tuning:standard

intro/verse(first guitar)
e|-0-0-0--0-0-0-0-0--0-0-3-3--3-3-3-3-3--3-3-0-0-0--0-0-0-0-0--0-0-0-0-0--0-0-0-0-0-----------|
B|-0-0-0--0-0-0-0-0--0-0-3-3--3-3-3-3-3--3-3-1-1-1--1-1-1-1-1--1-1-1-1-1--1-1-1-1-1-----------|
G|-1-1-1--1-1-1-1-1--1-1-0-0--0-0-0-0-0--0-0-2-2-2--2-2-2-2-2--2-2-0-0-0--0-0-0-0-0-----(x6)--|
D|-2-2-2--2-2-2-2-2--2-2-0-0--0-0-0-0-0--0-0-2-2-2--2-2-2-2-2--2-2-2-2-2--2-2-2-2-2-----------|
A|-2-2-2--2-2-2-2-2--2-2-2-2--2-2-2-2-2--3-3-0-0-0--0-0-0-0-0--0-0-3-3-3--3-3-3-3-3-----------|
E|-0-0-0--0-0-0-0-0--0-0-3-3--3-3-3-3-3--3-3-0-0-0--0-0-0-0-0--0-0-0-0-0--0-0-0-0-0-----------|


intro/verse(second guitar-play after the chords are playing the second time)
e|-------2---0---0------2---0---5--------------------------------------------|
B|-----3---3---3------3---3---3-----(x4)-------------------------------------|
G|-2h4------------2h4--------------------------------------------------------|
D|---------------------------------------------------------------------------|
A|---------------------------------------------------------------------------|
E|---------------------------------------------------------------------------|

chorus
e|-0-0-0--0-0-0-0-0--0-0-3-3--3-3-3-3-3--3-3-0-0-0--0-0-0-0-0--0-0-0-0-0--0-0-0-0-0--|
B|-0-0-0--0-0-0-0-0--0-0-3-3--3-3-3-3-3--3-3-1-1-1--1-1-1-1-1--1-1-1-1-1--1-1-1-1-1--|
G|-1-1-1--1-1-1-1-1--1-1-0-0--0-0-0-0-0--0-0-2-2-2--2-2-2-2-2--2-2-0-0-0--0-0-0-0-0--|
D|-2-2-2--2-2-2-2-2--2-2-0-0--0-0-0-0-0--0-0-2-2-2--2-2-2-2-2--2-2-2-2-2--2-2-2-2-2--|
A|-2-2-2--2-2-2-2-2--2-2-2-2--2-2-2-2-2--3-3-0-0-0--0-0-0-0-0--0-0-3-3-3--3-3-3-3-3--|
E|-0-0-0--0-0-0-0-0--0-0-3-3--3-3-3-3-3--3-3-0-0-0--0-0-0-0-0--0-0-0-0-0--0-0-0-0-0--|

e|-0-0-3-3--3-3-3-3-3--3-3-0-0-0--0-0-0-0-0--0-0-0-0-0--0-0-0-0-0-----------|
B|-1-1-3-3--3-3-3-3-3--3-3-1-1-1--1-1-1-1-1--1-1-1-1-1--1-1-1-1-1-----------|
G|-0-0-0-0--0-0-0-0-0--0-0-2-2-2--2-2-2-2-2--2-2-0-0-0--0-0-0-0-0-----(x2)--|
D|-2-2-0-0--0-0-0-0-0--0-0-2-2-2--2-2-2-2-2--2-2-2-2-2--2-2-2-2-2-----------|
A|-3-3-2-2--2-2-2-2-2--3-3-0-0-0--0-0-0-0-0--0-0-3-3-3--3-3-3-3-3-----------|
E|-0-0-3-3--3-3-3-3-3--3-3-0-0-0--0-0-0-0-0--0-0-0-0-0--0-0-0-0-0-----------|

the interlude is just like playing the four main chords in the intro but instead of 
constantly you just rest the chords

gl hf gg

| /  slide up
|   slide down
| h  hammer-on
| p  pull-off
| ~  vibrato
| +  harmonic
| x  Mute note
===============================================================================

ĂŽnscrie-te la newsletter


Like us on Facebook