Nearly Witches Tab - Panic At The Disco






Assalamualaikum

Artist: Panic at the Disco
Song: Nearly Witches (demo)
Tuning: Standard

This is just a temporary tab.. just in case u cant wait for the real thing..
I tabbed this in standard tuning so that its easier to play.. I picked it up by ear.. 
this is 1 of my early tabs so u know its not 100% accurate


MAIN PART
   Guitar 1
   here I am (the guitar comes in at the same time with am)
   (this first strum is ignored only for the very first timeplay it throughout the
    rest of the song)
e|----------------------------------------------------------|
B|-*8--8--8--8----4--4--4--4----8--8--8--8----4--4--4--4----|
G|-*4--4--4--4----4--4--4--4----4--4--4--4----4--4--4--4----|
D|-*5--5--5--5----6--6--6--6----5--5--5--5----6--6--6--6----|
A|-*6--6--6--6----6--6--6--6----6--6--6--6----6--6--6--6----|
E|----------------4--4--4--4------------------4--4--4--4----|
 |
 | Keyboard part (main riff)
 |(just keep playing this in the correct timing)
e|---------6-7-64------4-----------|
B|-------------------------6-/7/8----|
G|-----------------------------------|
D|-----------------------------------|
A|-----------------------------------|
E|-----------------------------------|

SOLO
Play the main part with this
The 6 on the 5th string (which has * beside it) is played lower due to their lower 
to me, this sounds okaypick it real slow and u didnt even notice the difference:)
   Guitar 2
                     (sorry, this starred part is where it gets hard to figure out)
A|---*6-----------------------------------------------------|
E|-7----6----7-6-4-6-(*****)--4-6-7-6-7-9-11-11h12p11------|  X2

The music stops at certain points (listen to the song) and the points are as follows..
I eat my wishes
I fell from the heavens.. (1st time)

Song Order
Verse  main part
Solo  main part + guitar 2s part
Silent Chorus  nothing
Chorus  main part


xxxxxxxxxxxxxxxxxxxxxxxxxxxxxxxxxxxxxxxxxxxxxxxxxxxxxxxxxxx
kany commenta/requests please contact me..
zar_of_filth92@yahoo.com
for myspace users u can find me using my email..

Assalamualaikum

ĂŽnscrie-te la newsletter


Like us on Facebook