Nine In The Afternoon Tab - Panic At The Disco






Intro
e|--------------------|
B|--------------------|
G|-5------------------|
D|-x------------------|
A|-3------------------|
E|--------------------|

e|--------------------|
B|--------------------|
G|-----5-7-5-----5----|
D|--5h7--------5-x----|
A|----------5h7--3----|
E|--------------------|
VERSE

guitar rest...

e|--------------------|
B|--------------------|
G|-----5-7-5-----5----|
D|--5h7--------5-x----|
A|----------5h7--3----|
E|--------------------|

e|-------------------------------|
B|-------------------------------|
G|-----5-7-5----5-7-5---5-7-5-/9~|
D|--5h7-----5h7------5h7---------|
A|-------------------------------|
E|-------------------------------|

Guitar rest...

e|--------------------|
B|--------------------|
G|-----5-7-5-----5----|
D|--5h7--------5-x----|
A|----------5h7--3----|
E|--------------------|

Guitar rest...

e|--------------------|
B|--------------------|
G|-----5-7-5-----5----|
D|--5h7--------5-x----|
A|----------5h7--3----|
E|--------------------|

Chorus
e|--------------------------|
B|--------------------------|
G|--------------------------|
D|4-------------------------|X2
A|2(x7)--7------2------3----|
E|-----6-5(x7)3-0(x7)0-1(x7)|

Bridge

e|--------------------|
B|--------------------|
G|-5--5--5------------|
D|-x--x--x------5-----|
A|-3--3--3--3-5-7-----|
E|--------------------|

e|--------------------|
B|--------------------|
G|-----5-7-5-----5----|
D|--5h7--------5-x----|
A|----------5h7--3----|
E|--------------------|

Verse

Guitar rest...

e|--------------------|
B|--------------------|
G|-----5-7-5-----5----|
D|--5h7--------5-x----|
A|----------5h7--3----|
E|--------------------|


e|-------------------------------|
B|-------------------------------|
G|-----5-7-5----5-7-5---5-7-5-/9~|
D|--5h7-----5h7------5h7---------|X2
A|-------------------------------|
E|-------------------------------|



Chorus
e|------------------------------|
B|------------------------------|
G|------------------------------|
D|----4-------------------------|X2
A|2-3-2(x7)--7------2------3----|
E|0-1------6-5(x7)3-0(x7)0-1(x7)|


ĂŽnscrie-te la newsletter


Like us on Facebook