Time To Dance (ver3) Tab - Panic At The Disco






Artist/Band - Panic! At The Disco
Album - A Fever You Can't Sweat Out
Song - Time To Dance


Tuning: Standard (E A D G B E)

Key:
~  = Let It Ring
b  = Bend String
PM = Palm Mute


Intro: x2
E]---------------------------------------------------------------------|
B]---------------------------------------------------------------------|
G]--7-7-7-7-7-7-7-7----------------------------------------------------|
D]--7-7-7-7-7-7-7-7--7-7-7-7-7-7-7-7--8-8-8-8-8-8-8-8-8-8-8-8-8-8-8-8--|
A]--5-5-5-5-5-5-5-5--7-7-7-7-7-7-7-7--8-8-8-8-8-8-8-8-8-8-8-8-8-8-8-8--|
E]-------------------5-5-5-5-5-5-5-5--6-6-6-6-6-6-6-6-6-6-6-6-6-6-6-6--|

E]---------------------------------------------------------------------|
B]---------------------------------------------------------------------|
G]---------------------------------------------------------------------|
D]--3-3-3-3-3-3-3-3--5-5-5-5-5-5-5-5--2-2-2-2-2-2-2-2-2-2-2-2-2-2-2-2--|
A]--3-3-3-3-3-3-3-3--5-5-5-5-5-5-5-5--2-2-2-2-2-2-2-2-2-2-2-2-2-2-2-2--|
E]--1-1-1-1-1-1-1-1--3-3-3-3-3-3-3-3--0-0-0-0-0-0-0-0-0-0-0-0-0-0-0-0--|


Verse 1:
E]---------------------------------------------------|
B]---------------------------------------------------|
G]---------------------------------------------------|
D]--8~------5~------8~------5--5--5--5--3--3--3-3-3--|
A]--8~------5~------8~------5--5--5--5--3--3--3-3-3--|
E]--6~------3~------6~------3--3--3--3--1--1--1-1-1--|

E]-------------------------------------------------------|
B]-------------------------------------------------------|
G]-------------------------------------------------------|
D]--8-8-8--8--8--8--8--8-8-8---5-5-5--5--5--5--5--5-5-5--|
A]--8-8-8--8--8--8--8--8-8-8---5-5-5--5--5--5--5--5-5-5--|
E]--6-6-6--6--6--6--6--6-6-6---3-3-3--3--3--3--3--3-3-3--|

E]-----------------------------------------------------|
B]-----------------------------------------------------|
G]-----------------------------------------------------|
D]--8-8-8--8--8--8--8--8-8-8---5-5-5--5--5--3--3--3-3--|
A]--8-8-8--8--8--8--8--8-8-8---5-5-5--5--5--3--3--3-3--|
E]--6-6-6--6--6--6--6--6-6-6---3-3-3--3--3--1--1--1-1--|


Pre-Chorus:
E]------------------------------------------------------------|
B]------------------------------------------------------------|
G]------------------------------------------------------------|
D]--7-7-7-7-7-7-7-7-7-7-7-7-7-7-7-7-7-7-7-7-7--8-8-8-8-8-8-8--|
A]--7-7-7-7-7-7-7-7-7-7-7-7-7-7-7-7-7-7-7-7-7--8-8-8-8-8-8-8--|
E]--5-5-5-5-5-5-5-5-5-5-5-5-5-5-5-5-5-5-5-5-5--6-6-6-6-6-6-6--|
PM  . . . . . . . . . . . . . . . . . . . . .


Chorus: x2
E]---------------------------------------------------------------------|
B]---------------------------------------------------------------------|
G]--7-7-7-7-7-7-7-7----------------------------------------------------|
D]--7-7-7-7-7-7-7-7--7-7-7-7-7-7-7-7--8-8-8-8-8-8-8-8-8-8-8-8-8-8-8-8--|
A]--5-5-5-5-5-5-5-5--7-7-7-7-7-7-7-7--8-8-8-8-8-8-8-8-8-8-8-8-8-8-8-8--|
E]-------------------5-5-5-5-5-5-5-5--6-6-6-6-6-6-6-6-6-6-6-6-6-6-6-6--|

E]---------------------------------------------------------------------|
B]---------------------------------------------------------------------|
G]---------------------------------------------------------------------|
D]--3-3-3-3-3-3-3-3--5-5-5-5-5-5-5-5--2-2-2-2-2-2-2-2-2-2-2-2-2-2-2-2--|
A]--3-3-3-3-3-3-3-3--5-5-5-5-5-5-5-5--2-2-2-2-2-2-2-2-2-2-2-2-2-2-2-2--|
E]--1-1-1-1-1-1-1-1--3-3-3-3-3-3-3-3--0-0-0-0-0-0-0-0-0-0-0-0-0-0-0-0--|


Middle Section:
(Rest here)


Verse 2: x2
E]-------------------------------------------------------|
B]-------------------------------------------------------|
G]-------------------------------------------------------|
D]--8-8-8--8--8--8--8--8-8-8---5-5-5--5--5--5--5--5-5-5--|
A]--8-8-8--8--8--8--8--8-8-8---5-5-5--5--5--5--5--5-5-5--|
E]--6-6-6--6--6--6--6--6-6-6---3-3-3--3--3--3--3--3-3-3--|

E]-----------------------------------------------------|
B]-----------------------------------------------------|
G]-----------------------------------------------------|
D]--8-8-8--8--8--8--8--8-8-8---5-5-5--5--5--3--3--3-3--|
A]--8-8-8--8--8--8--8--8-8-8---5-5-5--5--5--3--3--3-3--|
E]--6-6-6--6--6--6--6--6-6-6---3-3-3--3--3--1--1--1-1--|


Pre-Chorus:
E]------------------------------------------------------------|
B]------------------------------------------------------------|
G]------------------------------------------------------------|
D]--7-7-7-7-7-7-7-7-7-7-7-7-7-7-7-7-7-7-7-7-7--8-8-8-8-8-8-8--|
A]--7-7-7-7-7-7-7-7-7-7-7-7-7-7-7-7-7-7-7-7-7--8-8-8-8-8-8-8--|
E]--5-5-5-5-5-5-5-5-5-5-5-5-5-5-5-5-5-5-5-5-5--6-6-6-6-6-6-6--|
PM  . . . . . . . . . . . . . . . . . . . . .


Chorus: x2
E]---------------------------------------------------------------------|
B]---------------------------------------------------------------------|
G]--7-7-7-7-7-7-7-7----------------------------------------------------|
D]--7-7-7-7-7-7-7-7--7-7-7-7-7-7-7-7--8-8-8-8-8-8-8-8-8-8-8-8-8-8-8-8--|
A]--5-5-5-5-5-5-5-5--7-7-7-7-7-7-7-7--8-8-8-8-8-8-8-8-8-8-8-8-8-8-8-8--|
E]-------------------5-5-5-5-5-5-5-5--6-6-6-6-6-6-6-6-6-6-6-6-6-6-6-6--|

E]---------------------------------------------------------------------|
B]---------------------------------------------------------------------|
G]---------------------------------------------------------------------|
D]--3-3-3-3-3-3-3-3--5-5-5-5-5-5-5-5--2-2-2-2-2-2-2-2-2-2-2-2-2-2-2-2--|
A]--3-3-3-3-3-3-3-3--5-5-5-5-5-5-5-5--2-2-2-2-2-2-2-2-2-2-2-2-2-2-2-2--|
E]--1-1-1-1-1-1-1-1--3-3-3-3-3-3-3-3--0-0-0-0-0-0-0-0-0-0-0-0-0-0-0-0--|


Bridge:
E]----------------------------------------------------------------------|
B]----------------------------------------------------------------------|
G]----------------------------------------------------------------------|
D]--7-7-7-7-7-7-7-7-7-7-7-7-7-7-7-7--8-8-8-8-8-8-8-8-8-8-8-8-8-8-8-8-8--|
A]--7-7-7-7-7-7-7-7-7-7-7-7-7-7-7-7--8-8-8-8-8-8-8-8-8-8-8-8-8-8-8-8-8--|
E]--5-5-5-5-5-5-5-5-5-5-5-5-5-5-5-5--6-6-6-6-6-6-6-6-6-6-6-6-6-6-6-6-6--|
PM  . . . . . . . . . . . . . . . .  . . . . . . . . . .

E]---------------------------------------------------------|
B]---------------------------------------------------------|
G]--7--7-7-7--7-7--7-7--7-7-7------------------------------|
D]--7--7-7-7--7-7--7-7--7-7-7---5--5-5-5--5-5--5-5--5-5-5--|
A]--5--5-5-5--5-5--5-5--5-5-5---5--5-5-5--5-5--5-5--5-5-5--|
E]------------------------------3--3-3-3--3-3--3-3--3-3-3--|

E]-----------------------------------------------------------|
B]-----------------------------------------------------------|
G]-----------------------------------------------------------|
D]--7-7-7-7-7-7-7-7-7-7-7-7-7-7-7-7--8-8-8-8-8-8-8-8-8-8-8b--|
A]--7-7-7-7-7-7-7-7-7-7-7-7-7-7-7-7--8-8-8-8-8-8-8-8-8-8-8b--|
E]--5-5-5-5-5-5-5-5-5-5-5-5-5-5-5-5--6-6-6-6-6-6-6-6-6-6-6b--|
PM  . . . . . . . . . . . . . . . .  . . . . . . . . .

E]------------------------------------------------------------|
B]------------------------------------------------------------|
G]--7-7-7-7-7--7-7-7-7-7--7-7-7--7-7-7-7-7--7-7-7-7-7--7-7-7--|
D]--7-7-7-7-7--7-7-7-7-7--7-7-7--7-7-7-7-7--7-7-7-7-7--7-7-7--|
A]--5-5-5-5-5--5-5-5-5-5--5-5-5--5-5-5-5-5--5-5-5-5-5--5-5-5--|
E]------------------------------------------------------------|


Pre-Chorus:
E]-----------------------------------------------------|
B]-----------------------------------------------------|
G]-----------------------------------------------------|
D]--8-8---------5-5-----------8-8---------5-5---3-3----|
A]--8-8---------5-5-----------8-8---------5-5---3-3----|
E]--6-6---------3-3-----------6-6---------3-3---1-1----|


Final Chorus: x2
E]--------------------------------------------------------------------|
B]--------------------------------------------------------------------|
G]-----------------------------------7-7-7-7-7-7-7-7-7-7-7-7-7-7-7-7--|
D]--8-8-8-8-8-8-8-8-8-8-8-8-8-8-8-8--7-7-7-7-7-7-7-7-7-7-7-7-7-7-7-7--|
A]--8-8-8-8-8-8-8-8-8-8-8-8-8-8-8-8--5-5-5-5-5-5-5-5-5-5-5-5-5-5-5-5--|
E]--6-6-6-6-6-6-6-6-6-6-6-6-6-6-6-6-----------------------------------|

E]--------------------------------------------------------------------|
B]--------------------------------------------------------------------|
G]--------------------------------------------------------------------|
D]--2-2-2-2-2-2-2-2-2-2-2-2-2-2-2-2--5-5-5-5-5-5-5-5-5-5-5-5-5-5-5-5--|
A]--2-2-2-2-2-2-2-2-2-2-2-2-2-2-2-2--5-5-5-5-5-5-5-5-5-5-5-5-5-5-5-5--|
E]--0-0-0-0-0-0-0-0-0-0-0-0-0-0-0-0--3-3-3-3-3-3-3-3-3-3-3-3-3-3-3-3--|


Outro:
E]-------------------------------------------------------------------|
B]-------------------------------------------------------------------|
G]--7-7-7-7-7-7-7-7-7-7-7-7-7-7-7-7-7-7-7-7-7-7-7-7-7-7-7-7-7-7-7-7--|
D]--7-7-7-7-7-7-7-7-7-7-7-7-7-7-7-7-7-7-7-7-7-7-7-7-7-7-7-7-7-7-7-7--|
A]--5-5-5-5-5-5-5-5-5-5-5-5-5-5-5-5-5-5-5-5-5-5-5-5-5-5-5-5-5-5-5-5--|
E]-------------------------------------------------------------------|


End on:
E]-----|
B]-----|
G]--7--|
D]--7--|
A]--5--|
E]-----|

ĂŽnscrie-te la newsletter


Like us on Facebook