Time To Dance (ver4) Tab - Panic At The Disco






Time to Dance by Panic! At the Disco.
This is the first tab I've made, I hope it you like it, any constructive criticism is 
This song sounds awesome in overdrive!

Intro:
e|------------------------------|
b|------------13----------------|
g|--14-12--14----14-15-14-12----| x2
d|---------------------------15-|
a|------------------------------|
d|------------------------------|

e|------------------------------|-------------------------------------|
b|------------13----------------|-------------13-----15-13-15-13-15-13|
g|--14-12--14----14-15-14-12----|--14-12------------------------------|
d|---------------------------15-|-------15-15----15-------------------|
a|------------------------------|-------------------------------------|
d|------------------------------|-------------------------------------|

e|----------------------------|----------------------|
b|----------------------------|----------------------|
g|--7777--------------10101010|----------------------|
d|--7777--7777--8888--10101010|--7777--3333--55555555| x2
a|--5555--7777--8888--8-8-8-8-|--7777--3333--55555555|
d|--------7777--8888----------|--7777--3333--55555555|

Verse:
e|----------------------------|----------------------|
b|----------------------------|----------------------|
g|----------------------------|----------------------|
d|--88888888--55555555--------|--88888888--5555--3333|
a|--88888888--55555555--------|--88888888--5555--3333|
d|--88888888--55555555--------|--88888888--5555--3333|

e|----------------------------|----------------------|
b|----------------------------|----------------------|
g|----------------------------|----------------------|
d|--88888888--55555555--------|--88888888--55555555--|
a|--88888888--55555555--------|--88888888--55555555--|
d|--88888888--55555555--------|--88888888--55555555--|

e|----------------------------|
b|----------------------------|
g|----------------------------|
d|--77777777--88888888--------|
a|--77777777--88888888--------|
d|--77777777--88888888--------|

Chorus:
e|----------------------------|------------------|
b|----------------------------|------------------|
g|--7777--------------10101010|------------------|
d|--7777--7777--8888--10101010|--7777--3333--5555| x2
a|--5555--7777--8888--8-8-8-8-|--7777--3333--5555|
d|--------7777--8888----------|--7777--3333--5555|

Then the bridge thingy- no guitar
( you know- gimme envy, gimme malice..)

Verse:
e|----------------------------|----------------------|
b|----------------------------|----------------------|
g|----------------------------|----------------------|
d|--88888888--55555555--------|--88888888--5555--3333|
a|--88888888--55555555--------|--88888888--5555--3333|
d|--88888888--55555555--------|--88888888--5555--3333|

e|----------------------------|----------------------|
b|----------------------------|----------------------|
g|----------------------------|----------------------|
d|--88888888--55555555--------|--88888888--55555555--|
a|--88888888--55555555--------|--88888888--55555555--|
d|--88888888--55555555--------|--88888888--55555555--|

e|----------------------------|
b|----------------------------|
g|----------------------------|
d|--77777777--88888888--------|
a|--77777777--88888888--------|
d|--77777777--88888888--------|

Chorus:
e|----------------------------|------------------|
b|----------------------------|------------------|
g|--7777--------------10101010|------------------|
d|--7777--7777--8888--10101010|--7777--3333--5555| x2
a|--5555--7777--8888--8-8-8-8-|--7777--3333--5555|
d|--------7777--8888----------|--7777--3333--5555|


come on, come on, this is screaming...

e|-------------------------------------------------------|
b|-------------------------------------------------------|
g|-----------------------------77777777--1010101010101010|
d|-88888888--1010101010101010--77777777--1010101010101010| x2
a|-88888888--1010101010101010--55555555--8-8-8-8-8-8-8-8-|
d|-88888888--1010101010101010----------------------------|

boys wil be boys, baby...
e|---------------------|
b|---------------------|
g|---------------------|
d|-88--8888--55--5555--| x2
a|-88--8888--55--5555--|
d|-88--8888--55--5555--|

gimme envy, gimme malice....
e|-------------------------------------------------------|
b|-------------------------------------------------------|
g|-----------------------------77777777--1010101010101010|
d|-88888888--1010101010101010--77777777--1010101010101010| x2
a|-88888888--1010101010101010--55555555--8-8-8-8-8-8-8-8-|
d|-88888888--1010101010101010----------------------------|

e|---------|
b|---------|
g|--77777--|
d|--77777--| play until the end.
a|--55555--|
d|---------|

ĂŽnscrie-te la newsletter


Like us on Facebook