Time To Dance Bass Tab - Panic At The Disco






Hello ya'll this is to good of a song to not let go untabed and i think i got the tab 
this song pretty good

Intro x2

G:----------------------------------------------------------------------|
D:---------77777777-8888888888888888-77777777----------5555555555555555-|
A:55555555------------------------------------88888888------------------|
E:----------------------------------------------------------------------|

Verse
      (let the guitar do this one time through then play)
G:---------------------------------------------------------------------|
D:8-8-8-8-8-8-8-8-5-5-5-5-5-5-5-5-8-8-8-8-8-8-8-8-5-5-5-5--------------|
A:--------------------------------------------------------8-8-8-8------|
E:---------------------------------------------------------------------|

Pre-Chorus
          (Mute)
G:---------------------------------------------------------------------|
D:-7777777777777777-8888888888888888-----------------------------------|
A:---------------------------------------------------------------------|
E:---------------------------------------------------------------------|

Chorus x2

G:----------------------------------------------------------------------|
D:---------77777777-8888888888888888-77777777----------5555555555555555-|
A:55555555------------------------------------88888888------------------|
E:----------------------------------------------------------------------|

Verse x2
       (Let that little techno part go by then play)
G:---------------------------------------------------------------------|
D:8-8-8-8-8-8-8-8-5-5-5-5-5-5-5-5-8-8-8-8-8-8-8-8-5-5-5-5--------------|
A:--------------------------------------------------------8-8-8-8------|
E:---------------------------------------------------------------------|

Pre-Chorus
          (Mute)
G:---------------------------------------------------------------------|
D:-7777777777777777-8888888888888888-----------------------------------|
A:---------------------------------------------------------------------|
E:---------------------------------------------------------------------|

Chorus x2

G:----------------------------------------------------------------------|
D:--------77777777-8888888888888888-77777777----------55555555555555555-|
A:5555555------------------------------------88888888-------------------|
E:----------------------------------------------------------------------|

Bridge                Mute whats in ( )
                       /
G:------------------------------------------------------------------------|
D:-(7777777777777777-8888888888888888)-00000000-33333333------------------|
A:------------------------------------------------------------------------|
E:------------------------------------------------------------------------|
                     Mute whats in ( )
                      /
G:---------------------------------------------------------------------|
D:-(7777777777777777-8888888888888888)-0000000000000000----------------|
A:---------------------------------------------------------------------|
E:---------------------------------------------------------------------|

 (wait till last chorus to play)

Chorus x2

G:---------------------------------------------------------------------|
D:8888888888888888-10 x16-0000000000000000-3333333333333333------------|
A:---------------------------------------------------------------------|
E:---------------------------------------------------------------------|

End With

G:---------------------------------------------------------------------|
D:-0-0-0-0-0-0-0-0-0-0-0-0-0-0-0-0-------------------------------------|
A:---------------------------------------------------------------------|
E:---------------------------------------------------------------------|


Hope this tabs is what you were looking for. ENJOY!!!!!!!!!!!!!!!!!!!!!!!!!!

ĂŽnscrie-te la newsletter


Like us on Facebook