Time To Dance Tab - Panic At The Disco






Artist: Panic! At The Disco
Song: Time To Dance
Album: A Fever You Can't Sweat Out
Tabbed By: Deadlights


Intro:
Guitar:
(0:00)
e|-----------------|-----------------|-----------------|-----------------|
B|-----------------|-----------------|-----------------|-----------------|
G|-----------------|-----------------|-----------------|-----------------|
D|-0-0-0-0-0-0-0-0-|-7-7-7-7-7-7-7-7-|-8-8-8-8-8-8-8-8-|-8-8-8-8-8-8-8-8-|
A|-0-0-0-0-0-0-0-0-|-7-7-7-7-7-7-7-7-|-8-8-8-8-8-8-8-8-|-8-8-8-8-8-8-8-8-|
D|-0-0-0-0-0-0-0-0-|-7-7-7-7-7-7-7-7-|-8-8-8-8-8-8-8-8-|-8-8-8-8-8-8-8-8-|

Synth/Keys:
*Tabbed in case Guitar 2 wants to play a variation of it.
(0:00)
e|-----------8-----|-----------------|-----------8-----|-----------------|
B|-10--8--10---10--|--11--10--8------|-10--8--10---10--|--11--10--8------|
G|-----------------|-------------10--|-----------------|-------------10--|
D|-----------------|-----------------|-----------------|-----------------|
A|-----------------|-----------------|-----------------|-----------------|
D|-----------------|-----------------|-----------------|-----------------|

Guitar:
(0:05)
e|-----------------|-----------------|-----------------|-----------------|
B|-----------------|-----------------|-----------------|-----------------|
G|-----------------|-----------------|-----------------|-----------------|
D|-7-7-7-7-7-7-7-7-|-3-3-3-3-3-3-3-3-|-5-5-5-5-5-5-5-5-|-5-5-5-5-5-5-5-5-|
A|-7-7-7-7-7-7-7-7-|-3-3-3-3-3-3-3-3-|-5-5-5-5-5-5-5-5-|-5-5-5-5-5-5-5-5-|
D|-7-7-7-7-7-7-7-7-|-3-3-3-3-3-3-3-3-|-5-5-5-5-5-5-5-5-|-5-5-5-5-5-5-5-5-|

Synth/Keys:
(0:05)                                                     1st Ending         2nd Ending
e|-----------8-----|-----------------|-----------------|------8------10--||-------8------8--||
B|-10--8--10---10--|--11--10--8------|-----10--8-------|-----------------||-----------------||
G|-----------------|-------------10--|--10--------10---|--10-----10------||--10-----10------||
D|-----------------|-----------------|-----------------|-----------------||-----------------||
A|-----------------|-----------------|-----------------|-----------------||-----------------||
D|-----------------|-----------------|-----------------|-----------------||-----------------||


Verse:
(0:23)
e|-----------------|-----------------|-----------------|-----------------|
B|-----------------|-----------------|-----------------|-----------------|
G|-----------------|-----------------|-----------------|-----------------|
D|-8~-------------|-5~-------------|-8~-------------|-5~-------------|
A|-8~-------------|-5~-------------|-8~-------------|-5~-------------|
D|-8~-------------|-5~-------------|-8~-------------|-5~-------------|

(0:34)
e|--------------------------|--------------------------|
B|--------------------------|--------------------------|
G|--------------------------|--------------------------|
D|-8-8-8--8--8--8--8--8-8-8-|-5-5-5--5--5--5--5--5-5-5-|
A|-8-8-8--8--8--8--8--8-8-8-|-5-5-5--5--5--5--5--5-5-5-|
D|-8-8-8--8--8--8--8--8-8-8-|-5-5-5--5--5--5--5--5-5-5-|

e|--------------------------|--------------------------|
B|--------------------------|--------------------------|
G|--------------------------|--------------------------|
D|-8-8-8--8--8--8--8--8-8-8-|-5-5-5--5--5--3--3--3-3-3-|
A|-8-8-8--8--8--8--8--8-8-8-|-5-5-5--5--5--3--3--3-3-3-|
D|-8-8-8--8--8--8--8--8-8-8-|-5-5-5--5--5--3--3--3-3-3-|

(0:45)
e|-----------------|-----------------|-----------------|-----------------|
B|-----------------|-----------------|-----------------|-----------------|
G|-----------------|-----------------|-----------------|-----------------|
D|-7-7-7-7-7-7-7-7-|-7-7-7-7-7-7-7-7-|-8-8-8-8-8-8-8-8-|-8-8-8-8-8-8-8-8-|
A|-7-7-7-7-7-7-7-7-|-7-7-7-7-7-7-7-7-|-8-8-8-8-8-8-8-8-|-8-8-8-8-8-8-8-8-|
D|-7-7-7-7-7-7-7-7-|-7-7-7-7-7-7-7-7-|-8-8-8-8-8-8-8-8-|-8-8-8-8-8-8-8-8-|
PM . . . . . . . .   . . . . . . . .   . . . . . . . .   . . . . . . . .


Chorus:
(0:51)
e|-----------------|-----------------|-----------------|-----------------|
B|-----------------|-----------------|-----------------|-----------------|
G|-----------------|-----------------|-----------------|-----------------|
D|-0-0-0-0-0-0-0-0-|-7-7-7-7-7-7-7-7-|-8-8-8-8-8-8-8-8-|-8-8-8-8-8-8-8-8-|
A|-0-0-0-0-0-0-0-0-|-7-7-7-7-7-7-7-7-|-8-8-8-8-8-8-8-8-|-8-8-8-8-8-8-8-8-|
D|-0-0-0-0-0-0-0-0-|-7-7-7-7-7-7-7-7-|-8-8-8-8-8-8-8-8-|-8-8-8-8-8-8-8-8-|

e|-----------------|-----------------|-----------------|-----------------|
B|-----------------|-----------------|-----------------|-----------------|
G|-----------------|-----------------|-----------------|-----------------|
D|-7-7-7-7-7-7-7-7-|-3-3-3-3-3-3-3-3-|-5-5-5-5-5-5-5-5-|-5-5-5-5-5-5-5-5-|
A|-7-7-7-7-7-7-7-7-|-3-3-3-3-3-3-3-3-|-5-5-5-5-5-5-5-5-|-5-5-5-5-5-5-5-5-|
D|-7-7-7-7-7-7-7-7-|-3-3-3-3-3-3-3-3-|-5-5-5-5-5-5-5-5-|-5-5-5-5-5-5-5-5-|


Verse 2:
(1:27)
e|--------------------------|--------------------------|
B|--------------------------|--------------------------|
G|--------------------------|--------------------------|
D|-8-8-8--8--8--8--8--8-8-8-|-5-5-5--5--5--5--5--5-5-5-|
A|-8-8-8--8--8--8--8--8-8-8-|-5-5-5--5--5--5--5--5-5-5-|
D|-8-8-8--8--8--8--8--8-8-8-|-5-5-5--5--5--5--5--5-5-5-|

e|--------------------------|--------------------------|
B|--------------------------|--------------------------|
G|--------------------------|--------------------------|
D|-8-8-8--8--8--8--8--8-8-8-|-5-5-5--5--5--3--3--3-3-3-|
A|-8-8-8--8--8--8--8--8-8-8-|-5-5-5--5--5--3--3--3-3-3-|
D|-8-8-8--8--8--8--8--8-8-8-|-5-5-5--5--5--3--3--3-3-3-|

(1:50)
e|-----------------|-----------------|-----------------|-----------------|
B|-----------------|-----------------|-----------------|-----------------|
G|-----------------|-----------------|-----------------|-----------------|
D|-7-7-7-7-7-7-7-7-|-7-7-7-7-7-7-7-7-|-8-8-8-8-8-8-8-8-|-8-8-8-8-8-8-8-8-|
A|-7-7-7-7-7-7-7-7-|-7-7-7-7-7-7-7-7-|-8-8-8-8-8-8-8-8-|-8-8-8-8-8-8-8-8-|
D|-7-7-7-7-7-7-7-7-|-7-7-7-7-7-7-7-7-|-8-8-8-8-8-8-8-8-|-8-8-8-8-8-8-8-8-|
PM . . . . . . . .   . . . . . . . .   . . . . . . . .   . . . . . . . .


Chorus:
(1:56)
e|-----------------|-----------------|-----------------|-----------------|
B|-----------------|-----------------|-----------------|-----------------|
G|-----------------|-----------------|-----------------|-----------------|
D|-0-0-0-0-0-0-0-0-|-7-7-7-7-7-7-7-7-|-8-8-8-8-8-8-8-8-|-8-8-8-8-8-8-8-8-|
A|-0-0-0-0-0-0-0-0-|-7-7-7-7-7-7-7-7-|-8-8-8-8-8-8-8-8-|-8-8-8-8-8-8-8-8-|
D|-0-0-0-0-0-0-0-0-|-7-7-7-7-7-7-7-7-|-8-8-8-8-8-8-8-8-|-8-8-8-8-8-8-8-8-|

e|-----------------|-----------------|-----------------|-----------------|
B|-----------------|-----------------|-----------------|-----------------|
G|-----------------|-----------------|-----------------|-----------------|
D|-7-7-7-7-7-7-7-7-|-3-3-3-3-3-3-3-3-|-5-5-5-5-5-5-5-5-|-5-5-5-5-5-5-5-5-|
A|-7-7-7-7-7-7-7-7-|-3-3-3-3-3-3-3-3-|-5-5-5-5-5-5-5-5-|-5-5-5-5-5-5-5-5-|
D|-7-7-7-7-7-7-7-7-|-3-3-3-3-3-3-3-3-|-5-5-5-5-5-5-5-5-|-5-5-5-5-5-5-5-5-|


Bridge:
(2:18)
e|-----------------|-----------------|-----------------|-----------------|
B|-----------------|-----------------|-----------------|-----------------|
G|-----------------|-----------------|-----------------|-----------------|
D|-7-7-7-7-7-7-7-7-|-7-7-7-7-7-7-7-7-|-8-8-8-8-8-8-8-8-|-8-8-8-8-8-8-8-8-|
A|-7-7-7-7-7-7-7-7-|-7-7-7-7-7-7-7-7-|-8-8-8-8-8-8-8-8-|-8-8-8-8-8-8-8-8-|
D|-7-7-7-7-7-7-7-7-|-7-7-7-7-7-7-7-7-|-8-8-8-8-8-8-8-8-|-8-8-8-8-8-8-8-8-|
PM . . . . . . . .   . . . . . . . .   . . . . . . . .   . . . . . . . .

e|-----------------|-----------------|-----------------|-----------------|
B|-----------------|-----------------|-----------------|-----------------|
G|-----------------|-----------------|-----------------|-----------------|
D|-0-0-0-0-0-0-0-0-|-0-0-0-0-0-0-0-0-|-3-3-3-3-3-3-3-3-|-3-3-3-3-3-3-3-3-|
A|-0-0-0-0-0-0-0-0-|-0-0-0-0-0-0-0-0-|-3-3-3-3-3-3-3-3-|-3-3-3-3-3-3-3-3-|
D|-0-0-0-0-0-0-0-0-|-0-0-0-0-0-0-0-0-|-3-3-3-3-3-3-3-3-|-3-3-3-3-3-3-3-3-|

e|-----------------|-----------------|-----------------|-----------------|
B|-----------------|-----------------|-----------------|-----------------|
G|-----------------|-----------------|-----------------|-----------------|
D|-7-7-7-7-7-7-7-7-|-7-7-7-7-7-7-7-7-|-8-8-8-8-8-8-8-8-|-8-8-8-8-8-8-8-8-|
A|-7-7-7-7-7-7-7-7-|-7-7-7-7-7-7-7-7-|-8-8-8-8-8-8-8-8-|-8-8-8-8-8-8-8-8-|
D|-7-7-7-7-7-7-7-7-|-7-7-7-7-7-7-7-7-|-8-8-8-8-8-8-8-8-|-8-8-8-8-8-8-8-8-|
PM . . . . . . . .   . . . . . . . .   . . . . . . . .   . . . . . . . .

e|-----------------|-----------------|-----------------|-----------------|
B|-----------------|-----------------|-----------------|-----------------|
G|-----------------|-----------------|-----------------|-----------------|
D|-0-0-0-0-0-0-0-0-|-0-0-0-0-0-0-0-0-|-0-0-0-0-0-0-0-0-|-0-0-0-0-0-0-0-0-|
A|-0-0-0-0-0-0-0-0-|-0-0-0-0-0-0-0-0-|-0-0-0-0-0-0-0-0-|-0-0-0-0-0-0-0-0-|
D|-0-0-0-0-0-0-0-0-|-0-0-0-0-0-0-0-0-|-0-0-0-0-0-0-0-0-|-0-0-0-0-0-0-0-0-|

(2:41)
e|-----------------|-----------------|-----------------|-----------------|
B|-----------------|-----------------|-----------------|-----------------|
G|-----------------|-----------------|-----------------|-----------------|
D|-8-8------------|-----------------|-5-5------------|-----------------|
A|-8-8------------|-----------------|-5-5------------|-----------------|
D|-8-8------------|-----------------|-5-5------------|-----------------|

e|-----------------|-----------------|-----------------|-----------------|
B|-----------------|-----------------|-----------------|-----------------|
G|-----------------|-----------------|-----------------|-----------------|
D|-8-8------------|-----------------|-5-5------------|-3-3------------|
A|-8-8------------|-----------------|-5-5------------|-3-3------------|
D|-8-8------------|-----------------|-5-5------------|-3-3------------|


Ending:
Guitar 1: (low part)
(2:52)
e|-----------------|-----------------|-------------------------|-------------------------|
B|-----------------|-----------------|-------------------------|-------------------------|
G|-----------------|-----------------|-------------------------|-------------------------|
D|-8-8-8-8-8-8-8-8-|-8-8-8-8-8-8-8-8-|-10-10-10-10-10-10-10-10-|-10-10-10-10-10-10-10-10-|
A|-8-8-8-8-8-8-8-8-|-8-8-8-8-8-8-8-8-|-10-10-10-10-10-10-10-10-|-10-10-10-10-10-10-10-10-|
D|-8-8-8-8-8-8-8-8-|-8-8-8-8-8-8-8-8-|-10-10-10-10-10-10-10-10-|-10-10-10-10-10-10-10-10-|

e|-----------------|-----------------|-----------------|-----------------|
B|-----------------|-----------------|-----------------|-----------------|
G|-----------------|-----------------|-----------------|-----------------|
D|-0-0-0-0-0-0-0-0-|-0-0-0-0-0-0-0-0-|-3-3-3-3-3-3-3-3-|-3-3-3-3-3-3-3-3-|
A|-0-0-0-0-0-0-0-0-|-0-0-0-0-0-0-0-0-|-3-3-3-3-3-3-3-3-|-3-3-3-3-3-3-3-3-|
D|-0-0-0-0-0-0-0-0-|-0-0-0-0-0-0-0-0-|-3-3-3-3-3-3-3-3-|-3-3-3-3-3-3-3-3-|

Guitar 2: (high part)
(2:52)
e|-----------------|-----------------|-------------------------|-------------------------|
B|-----------------|-----------------|-------------------------|-------------------------|
G|-----------------|-----------------|-------------------------|-------------------------|
D|-8-8-8-8-8-8-8-8-|-8-8-8-8-8-8-8-8-|-10-10-10-10-10-10-10-10-|-10-10-10-10-10-10-10-10-|
A|-8-8-8-8-8-8-8-8-|-8-8-8-8-8-8-8-8-|-10-10-10-10-10-10-10-10-|-10-10-10-10-10-10-10-10-|
D|-8-8-8-8-8-8-8-8-|-8-8-8-8-8-8-8-8-|-10-10-10-10-10-10-10-10-|-10-10-10-10-10-10-10-10-|

e|-------------------------|-------------------------|-------------------------|-------------------------|
B|-------------------------|-------------------------|-------------------------|-------------------------|
G|-------------------------|-------------------------|-------------------------|-------------------------|
D|-12-12-12-12-12-12-12-12-|-12-12-12-12-12-12-12-12-|-15-15-15-15-15-15-15-15-|-15-15-15-15-15-15-15-15-|
A|-12-12-12-12-12-12-12-12-|-12-12-12-12-12-12-12-12-|-15-15-15-15-15-15-15-15-|-15-15-15-15-15-15-15-15-|
D|-12-12-12-12-12-12-12-12-|-12-12-12-12-12-12-12-12-|-15-15-15-15-15-15-15-15-|-15-15-15-15-15-15-15-15-|


(3:15)
e|-----------------|-----------------|-----------------|-----------------|-----------|
B|-----------------|-----------------|-----------------|-----------------|-----------|
G|-----------------|-----------------|-----------------|-----------------|-----------|
D|-0-0-0-0-0-0-0-0-|-0-0-0-0-0-0-0-0-|-0-0-0-0-0-0-0-0-|-0-0-0-0-0-0-0-0-|-0-0-0-0-0-|
A|-0-0-0-0-0-0-0-0-|-0-0-0-0-0-0-0-0-|-0-0-0-0-0-0-0-0-|-0-0-0-0-0-0-0-0-|-0-0-0-0-0-|
D|-0-0-0-0-0-0-0-0-|-0-0-0-0-0-0-0-0-|-0-0-0-0-0-0-0-0-|-0-0-0-0-0-0-0-0-|-0-0-0-0-0-|

Questions? Comments? Requests? Email

ĂŽnscrie-te la newsletter


Like us on Facebook