Young Folks (ver2) Tab - Peter Bjorn And John






Intro WHISTLE: 2x
   F                      Dmi           C                      Ami
E-----------------------------------|
H13^15-15-15-15-13--13------13-----------------|
G------------14-14----12^14-14-14-1412-12-9-|
D-----------------------------------|
A-----------------------------------|
E-----------------------------------|

   F              Dmi           Ami      {na druhy krt C}
E-----------------|
H------------------|
G-9-99-97-7--------|
D---------10-10-7-10-|
A----------------|
E-----------------|


F                      Dmi
if i told you things i did before
C                      Ami
told you how i used to be
F                      Dmi              Ami
would you go along with someone like me
F                    Dmi
if you knew my story word for word
C                 Ami
had all of my history
F                      Dmi             Ami C
would you go along with someone like me


         F               Dmi
i didn't fall and had my share
          C           Ami
it didn't lead nowhere
F                    Dmi              C Ami   {bez C}
i would go along with someone like you
F                          Dmi
it doesn't matter what you did
            C              Ami
who you were hanging with
F                         Dmi                  Ami    {C}
we could stick around and see this night through

REF:
                            F
and we don't care about the young folks
                 C
talkin' bout the young style
                            F
and we don't care about the old folks
                            C
talkin' 'bout the old style too
                        F
and we don't care about their own faults
                  C
talkin' 'bout our own style
                     F
all we care 'bout is talking
Dmi                 Ami  {C}
talking only me and you


1x WHISTLE


F                       Dmi
usually when things has gone this far
C                   Ami
people tend to disappear
F                       Dmi          Ami
no-one will surprise me unless you do
F                            Dmi
i can tell there's something goin' on
C                   Ami
hours seems to disappear
F                   Dmi               Ami  {C}
everyone is leaving i'm still with you


           F              Dmi
it doesn't matter what we do
             C            Ami
where we are going to
F                       Dmi                   Ami
we can stick around and see this night through

2x REF:
                            F
and we don't care about the young folks
                 C
talkin' bout the young style
                            F
and we don't care about the old folks
                            C
talkin' 'bout the old style too
                        F
and we don't care about their own faults
                  C
talkin' 'bout our own style
                     F
all we care 'bout is talking
Dmi                 Ami  {C}
talking only me and you


talking only me and you


1x WHISLTE


talking only me and you
talking only me and you

BASS:

Intro WHISTLE: 2x
G---------------------------------------------------|
D--------------------------------------------|
A---8-8-888-5-55-5555-3-3-333-^12-1212-12121212--------|
E--------------------------------------------------|

G------------------------------------------------------|
D------------------------------------------------------|
A---8-8-888-5-55-555-10-12-12-121212-12-1212-12121212-|
E------------------------------------------------------|


VERSE 1 (0:36):
G--------------------------------------|
D-------------------------------|
A---8-8-888-5-55-555-3-3-333-12-1212-121212-|
E--------------------------------------|

G----------------------------------------
D---------------------------------------
A---8-8-888-5-55-555-10-12-12-121212-12-1212121212--
E----------------------------------------

G--------------------------------------|
D-------------------------------|
A---8-8-888-5-55-555-3-3-333-12-1212-121212-|
E--------------------------------------|

G----------------------------------------|
D----------------------------------------|
A---8-8-888-5-55-555-10-12-12-1212-3-33-3-33-|
E----------------------------------------|


VERSE 2 (1:04):
G--------------------------------------|
D-------------------------------|
A---8-8-888-5-55-5555-3-3-333-12-1212-12121212-|
E--------------------------------------| 3x

G------------------------------------------------|
D------------------------------------------------|
A---8-8-888-5-55-555-10-12-12-1212-12-1212-12121212-|
E-------------------------------------------------|


REF: (1:31)
G-----------------------------------------|
D--------------577--------------------|
A---8-8-888-8-88---3-3-333-333-5-77--|
E-----------------------------------------|

G----------------------------------------|
D----------------------------------------|
A---8-8-888-8-8888883-3-333-3-333333--|
E----------------------------------------|

G----------------------------------------|
D--------------5-77--------------------|
A---8-8-888-8-88----3-3-333-333-5-77--|
E-----------------------------------------|

G--------------------------------------------------|
D--------------------------------------------------|
A---8-8-888-5-55-5-5-10^12-12-1212-12-1212-12121212-|
E--------------------------------------------------|


 1x WHISTLE (2:00)


VERSE 3  (2:14):
G--------------------------------------|
D-------------------------------|
A---8-8-888-5-55-555-3-3-333-12-1212-121212-|
E--------------------------------------|

G--------------------------------------------
D--------------------------------------------------------
A---8-8-888-5-55-555-10-12-12-1212-12-1212121212------
E--------------------------------------------

G--------------------------------------|
D-------------------------------|
A---8-8-888-5-55-555-3-3-333-12-1212-121212-|
E--------------------------------------|

G-----------------------------------------------|
D-----------------------------------------------|
A---8-8-888-5-55-555-10-12-12-12-1212-1212-12-121212-|
E-----------------------------------------------|

G--------------------------------------|
D-------------------------------|
A---8-8-888-5-55-555-3-3-333-12-1212-121212-|
E--------------------------------------|

G---------------------------------------|
D--------------------------------------|
A---8-8-888-5-55-555-10-12-12-121212-12-1212121212-|
E---------------------------------------|


 2x REF (2:54)
 1x WHISTLE (3:51)

Majo_13_Lucky






Like us on Facebook