Young Folks Bass Tab - Peter Bjorn And John






ok so the numbers do not add up to the beat with the song
so your gonna have to listen to the song for the beat

Enjoy...

Drums

Intro w/Wistling 0:08:

G--------------------------------------|
D---------------------------7-7-777----|
A---8-8-888/5-5-555/3-3-333/-----------|
E--------------------------------------|

G--------------------------------------| x2
D--------------------------------------|
A---8-8-888/5-5-555/12-12-121212121212-|
E--------------------------------------|

Verse:

G--------------------------------------|
D---------------------------7-7-777----|
A---8-8-888/5-5-555/3-3-333/-----------|
E--------------------------------------|

G--------------------------------------|
D--------------------------------------|
A---8-8-888/5-5-555/12-12-121212121212-|
E--------------------------------------|

G--------------------------------------|
D---------------------------7-7-777----|
A---8-8-888/5-5-555/3-3-333/-----------|
E--------------------------------------|

G----------------------------------------| x2
D----------------------------------------|
A---8-8-888/5-5-555/12-12-121212/3-3-333-|
E----------------------------------------|

Chorus:

G--------------------------------------|
D----------------55-77/----------------|
A---88888888888------------------------|
E--------------------------------------|

G--------------------------------------| x3
D--------------------------------------|
A---333333333333--55-77----------------|
E--------------------------------------|

G--------------------------------------|
D--------------------------------------|
A---8-8-888/5-5-555/12-12-121212121212-|
E--------------------------------------|

then do this:

Verse
Chorus
Outro is the same as the Intro only you stop when the whistling stops.






Like us on Facebook