Young Folks Intro (ver2) Tab - Peter Bjorn And John






heres my tab, and this is the correct one, beleive me. It should sound pretty good.


e-------------------------------------------------------------------|
b-10-101010--8-8--5-5--8--5-555--3-3--0-----------------------------|
g-------------------------------------------------------------------|
d-------------------------------------------------------------------|
a-------------------------------------------------------------------|
e-------------------------------------------------------------------|

e-------------------------------------------------------------------|
b-0-000-------------------------------------------------------------|
g--------2-2--0-0-----0---------------------------------------------|
d------------------2------------------------------------------------|
a-------------------------------------------------------------------|
e-------------------------------------------------------------------|

alright, there ya go, that other one, doesnt work, i tried. it sounds like crap, i 
out how to do it, and here it is, hope you enjoyed






Like us on Facebook