Young Folks Intro (ver3) Tab - Peter Bjorn And John






so obviously the intro is whistling, but the tune was stuck in my head so i thought i 
try to play it on my guitar. its not perfect but its fun to play. it gets your hand kinda 
on an acoustic though


e|-12---12-12-12------------------------------------------|
B|----------------15-15-12-12-15---12---12-12-12-10-10----|
G|-----------------------------------------------------12-|
D|--------------------------------------------------------|
A|--------------------------------------------------------|
E|--------------------------------------------------------|

e|--------------------------------------------|
B|-12---12-12-12------------------------------|
G|---------------14-14--12-12----12-----------|
D|----------------------------14--------------|
A|--------------------------------------------|
E|--------------------------------------------|

i hope you like this! have fun!






Like us on Facebook