Its Ice Tab - Phish






 Artist:Phish
 Song:It's Ice
 Album:Rift
 Tabbed by: Caleb Hayes(lubnub)

 This is a tough one. Good luck!

e--------------------------------4------------------6p4---3-----------|
B----------3--6---------------3------------------3------5---6p4---3---|
G-------5------------------5------------------5-----------------6-----|
D-3--6---------------3--6---------------3--6------------------------6-|
A---------------------------------------------------------------------|
E---------------------------------------------------------------------|

e--------------------------------4------------------6p4---3---------6-|
B----------3--6---------------3------------------3------5---6p4---3---|
G-------5------------------5------------------5-----------------6-----|
D-3--6---------------3--6---------------3--6--------------------------|
A---------------------------------------------------------------------|
E---------------------------------------------------------------------|

 Well it's only the intro but i'm working on the rest.

ĂŽnscrie-te la newsletter


Like us on Facebook