Meat Tab - Phish






Phish - Meat
Tabbed By: Mike Parker
EMail: MPShorty10@yahoo.com
Album: The Story of the GhostIntro
|-----------------10------10---------10-----10-----10----10-10--|
|--6--6--6--6-----10---x--10-----10---------10-----10----10-10--|
|--5--5--5--5-----10---x--10-----10---------10-----10----10-10--|
|--4--4--4--4---------------------------------------------------|
|---------------------------------------------------------------|
|---------------------------------------------------------------|


Verse    Play 16 Times
|--10----10-----10-10--|
|--10----10-----10-10--|
|--10----10-----10-10--|
|-------------x--------|
|----------------------|
|----------------------|

Outro                          Play 5 Times & Fade
|------------------------------10----10-----10-10--|
|--6--6--6--6----6--6----6-----10----10-----10-10--|
|--5--5--5--5----5--5----5-----10----10-----10-10--|
|-----------------------------------------x--------|
|--------------------------------------------------|
|--------------------------------------------------|

ĂŽnscrie-te la newsletter


Like us on Facebook