Phoenix - Baba Novak - Phoenix




E|----------------------------------------------------|
B|--9-10-10-10-10-10-9---------------9\10-9-----------|
G|---------------------10-9-7-7-9-10--------10-9-7-9--| 2 ORI  
D|----------------------------------------------------|
A|----------------------------------------------------|
E|----------------------------------------------------|

E|--------------------------------------------------|
B|-10\12-10-9-------10-9-------------9-10-----------|
G|------------10-10------10-9-7-9-10------10-9-7-9--| 2 ORI
D|--------------------------------------------------|
A|--------------------------------------------------|
E|--------------------------------------------------|

A5
D5
 D5                     C5        G5 A5
Armia Mariei sale Constantinopol
 D5                     C5
La furat si la monopol urca in zare din hotar
Mahometii vin la daruri mare-i turbanu
le sclipesc ochii ca banul lacomi si fara de habar

Bridge:
E|--------------------------------------------|
B|--------------------------------------------|
G|--7-7-7-7-7--7-5----5-7-7-7-7-7--7-5--------|
D|------------------7------------------8-7-5--|
A|--------------------------------------------|
E|--------------------------------------------|

apoi se face incepand de pe coarda D
TOATA TREABA SE FACE DE DOUA ORI
Chitara acustica ii ajuta la trecere care o face la solistica
(daca ascultati bine va veti da seama) cu acordurile:D,A,D,A

Sunt razboiuri urla Profetul taie crestinul
Cruce-ti fa afla-ti destinul
Prin paduri de ne umblat
Maica Domnului Precist Doamne Iisuse
Din apus un nor se isca:
Ceata lui Baba Novak

Ref:
  D5          C5    C5            D5
Zboara murgii caii,sub ai mortii crai
Despuind de spini,fratiilor crestini
 C5         F5
Fug turcii pierzand botforii
Moartea-i strange-n sac
Sapte-s cei de fug botforii
 A5      D5
Si Baba Novac

Bridge

Sapte ca in Tabernacol saptele sfintul
Fiii lui sapa mormantul
Pt turbanul cu smarald
Caii cad rosu-i pamantul nu mai e dinte
Sub faldul noptii-ntunecat

Solo:

E|-----------------------------------|
B|-----------------------------------|
G|-----7-7-5-7-5---------------------| 2 ORI
D|-7-7-----------8-7-5-5-7-8-7-5-7---|
A|-----------------------------------|
E|-----------------------------------|

E|-----------------------------------------|------------------------
B|-----------------------------------------|------------------------
G|-5-7-5-----------------------------------|5-7-5-------------------
D|-------8-7-5----5---------5-5-7-8-7-5-7--|------8-7-5---5---------
A|--------------8---8-7-5------------------|------------8---8-7-5---
E|------------------------8----------------|----------------------8-

-------------|
-------------|
-------------| 2 Ori
-------------|
7-8-7-5-7-5--|
-------------|

Zboara murgii caii,sub ai mortii crai
Despuind de spini,fratiilor crestini
Fug turcii pierzand botforii
Moartea-i strange-n sac
Sapte-s cei de fug botforii
ĂŽnscrie-te la newsletter


Join the ranks ! LIKE us on Facebook