Phoenix - Negru Voda - Phoenix




majoritatea bucatilor de solo din melodie sunt in la pentatonic:


e ----|--5----------8----------|
b ----|--5----------8----------|
g ----|--5-------7--8----------|
d ----|--5-------7-------------|
a ----|--5---6---7-------------|
e ----|--5----------8----------|

Rifful cel mai important ( apare deodata cu vocea, e si pe vioara)

e -------------------|-------------------|
b -------------------|-------------------|
g -------------------|-------------------|
d -------------------|-------------------|
a ------7----7---7--|------7-----7---7---|
e -8------8--5---5--|--8-----8--5---5----|

e -------------------|--------------|
b -------------------|--------------|
g -------------------|--------------|
d -------------5---5-|--------------|
a ------5--7---------|-----5--7--9--|
e --8----------------|-8----------7-|

Intro:
Riff 1 de 2 ori, apoi:

e--|------------------------|-----------------------|------------------------|
b--|------------------------|-----------------------|------------------------|
g--|-----5-----------5------|----5--5-7-8-7-5-------|----5-----------5-------|
d--|5-7---7-5---5-7--7-5----|5-7--7-----------7-5---|5-7---7-5---5-7--7-5----|
a-7|----------7-----------7-|---------------------7-|----------7-----------7-|
e--|------------------------|-----------------------|------------------------|


e--|---------------------|
b--|---------------------|
g--|-----5---------------| X 2
d--|5-7---7-5-----7-7--|
a--|-----------7---7-7--|
e--|---------------5-5---|

Atentie! Toate sunt triolete ( adica 3 note pe un timp :) )
Se poate incerca un palm mute ( pui mana dreapta usor pe corzi la capat,
sau mai bine, nu apesi complet notele pe grif)
Bucata asta e de doua ori, cu vioara care faca un fel de La.
Urmeaza acelasi lucru de doua ori mai rapid,
doar chitara cu un efect linistit.

Riff 3:
Probabil triolete, nu mi s-au incadrat in masura de pana acum
(poate se schimba masura :) , bateria bate un ritm de jazz)

Tot triolete (sau poate sextolete, etc .. nu stiu..):
Partea asta este cam subreda, nu stiu ce nu e bine
(masurile pare, de urcare par (si suna) mai dubios)

e|-----------------------|------------------------|--------------------------|
b|-----------------------|------------------------|--------------------------|
g|8-7-5-7-5---5----------|-------------5--5-7-5-7-|8-7-5-7---5--5------------|
d|------------7--7-5-7-5-|5---5-7-5-7--7----------|----------7--7--5-7-5-----|
a|---------------------7-|----7-------------------|-----------------------7--|
e|-----------------------|------------------------|--------------------------|

e|-----------------------|-------------------------|-------------------------|
b|-----------------------|-------------------------|-------------------------|
g|-----------------------|8-7-5-7-5---5------------|--------------5--5-7-5-7-|
d|5----------------------|------------7--7-5-7-5---|5---5-7-5-7---7----------|
a|--7-5-7-5--------------|-----------------------7-|--7----------------------|
e|-----------8--5--------|-------------------------|-------------------------|

e|-------5------------------|---------------------------|--------------------|
b|---------8-5--------------|---------------------------|--------------------|
g|8-7-5-------8-7-5---------|-----5------------5--------|--------------------|
d|--------------------7-5---|5-7---7-5---5-7---7-5------|--------------------|
a|------------------------7-|------------7------------7-|--------------------|
e|--------------------------|---------------------------|--------------------|

--------- > Riff 2 ....

Riff 3:

e ---|------------------|--------------------------|-----------------------|
b ---|------------------|--------------------------|-----------------------|
g ---|-------5-----9----|-------5------7-----------|-------5---------------|
d ---|5---7---7-5-9-----|5---7---7-5--7------------|5---7---7-5-7---7------|
a --7|-------------7---7|--------------5----------7|--------------7---7----|
e ---|------------------|--------------------------|-----------------5---5-|

e ---|------------------------|--------------------------|-------------------|
b ---|------------------------|--------------------------|-------------------|
g ---|------5-----------------|------5-------------5-----|------5------------|
d ---|5---7---7-5-7---7-------|5---7---7-5-5---7---7-5---|---7---7-5-7---7---|
a --7|-------------7---7----7-|-----------5------------5-|------------7---7--|
e ---|--------------5---5-----|--------------------------|-------------5---5-|
ĂŽnscrie-te la newsletter


Join the ranks ! LIKE us on Facebook