f**k You Up And Get High Tab - Pig Destroyer




----------------------------------------------------------------------------
 f**k You Up and Get High - Pig Destroyer
----------------------------------------------------------------------------

Tabbed by:Brian
Email:i_hide_from_u@hotmail.com
Tuning:

Riff 1
e|--------------------------------------------------------------------------|
B|--------------------------------------------------------------------------|
G|--------------------------------------------------------------------------|
D|-8-9-8-9-8/9-6---8-9-8-9-8/9-6---8-9-8-9-8/9-6---8-9-8-9-8/9-6------------|
A|-6-7-6-7-6/7-4---6-7-6-7-6/7-4---6-7-6-7-6/7-4---6-7-6-7-6/7-4------------|
E|--------------------------------------------------------------------------|

Riff 2
e|--------------------------------------------------------------------------|
B|--------------------------------------------------------------------------|
G|--------------------------------------------------------------------------|
D|-4---3-7-3--4---3-7-3--4---3-7-3--4---3-6-7-------------------------------|
A|-2---1-5-1--2---1-5-1--2---1-5-1--2---1-4-5-------------------------------|
E|--------------------------------------------------------------------------|

Riff 1
e|--------------------------------------------------------------------------|
B|--------------------------------------------------------------------------|
G|--------------------------------------------------------------------------|
D|-8-9-8-9-8/9-6---8-9-8-9-8/9-6---8-9-8-9-8/9-6---8-9-8-9-8/9-6------------|
A|-6-7-6-7-6/7-4---6-7-6-7-6/7-4---6-7-6-7-6/7-4---6-7-6-7-6/7-4------------|
E|--------------------------------------------------------------------------|

Riff 2
e|--------------------------------------------------------------------------|
B|--------------------------------------------------------------------------|
G|--------------------------------------------------------------------------|
D|-4---3-7-3--4---3-7-3--4---3-7-3--4---3-6-7-------------------------------|
A|-2---1-5-1--2---1-5-1--2---1-5-1--2---1-4-5-------------------------------|
E|--------------------------------------------------------------------------|

Riff 1
e|---------------------------------------------------------------------------|
B|---------------------------------------------------------------------------|
G|---------------------------------------------------------------------------|
D|-8-9-8-9-8/9-6---8-9-8-9-8/9-6---8-9-8-9-8/9-6---8-9-8-9-8/9-6-------------|
A|-6-7-6-7-6/7-4---6-7-6-7-6/7-4---6-7-6-7-6/7-4---6-7-6-7-6/7-4-------------|
E|---------------------------------------------------------------------------|

ĂŽnscrie-te la newsletter


Join the ranks ! LIKE us on Facebook