Everything Sucks Bass Tab - Pitchshifter






Everything Sucks/F**ked [again] by Pitchshifter
Transcribed by Leo Harfield 

One whole step detuning (FCGD), 87 bpm.

Intro and Verse
F|----------------------------------------------------------------|
C|----------------------------------------------------------------|
G|----------------------------------------------------------------|
D|-----7--7--7--3--6--4-------------------------------------------|

Chorus
F|----------------------------------------------------------------|
C|----------------------------------------------------------------|
G|----------------------------------------------------------------|
D|-----70-70-70-70-70---333333333-555555555-----------------------|

F|----------------------------------------------------------------|
C|----------------------------------------------------------------|
G|----------------------------------------------------------------|
D|-----70-70-70-70-70---333333333-6666666666----------------------|

Bridge
F|----------------------------------------------------------------|
C|----------------------------------------------------------------|
G|----------------------------------------------------------------|
D|-----4-4-4-/7--4-4-4-/7--4-4-4-






Like us on Facebook