Hidden Agenda (ver2) Tab - Pitchshifter






Band - Pitchshifter
Song  Hidden Agenda
Album - Deviant
Tabbed by Tom Brunner
Drop d tuning

~ - Let ring

Intro/verse
|-----------------|
|-----------------|
|-----------------|
|-----------------|
|-----------------|
|-8-7--5---8-7-5-|

|---------------------|
|-11/10----------8/10-|
|---------------------|
|---------------------|
|---------------------|
|---------------------|

This is the part leading up to the chorus
|---------------|---------------|
|---------------|---------------|
|---------------|---------------|
|-2--4-4-2-2-4-|-2--4-4-2-2-4-|
|-2-4-4-2-2-4-|-2-4-4-2-2-4-|
|-2-4-4-2-2-4-|-2-4-4-2-2-4-|

|---------------|--------------|
|---------------|---------6-6-5|
|-3-5-5-3-3-5-|-3-5-5-3-----|
|---------------|--------------|
|---------------|--------------|
|---------------|--------------|

Chorus
|----------------------------|
|----------------------------|
|----------------------------|
|-2-2-2-2--2-2--2-4----------|
|-2-2-2-2-2-2--2-4-----5-4~-|
|-2-2-2-2--2-2--2-4----------|

Outro
|-------------------------|
|-------------------------|
|-------------------------|
|-7--7-7--7-7--7-7--7-7-7-|
|-7--7-7--7-7--7-7--7-7-7-|
|-7--7-7--7-7--7-7--7-7-7-|

|------------------------------------------|
|------------------------------------------|
|------------------------------------------|
|-10--10-10--10-10-12-12-12-12-10-10-10-10-|
|-10--10-10--10-10-12-12-12-12-10-10-10-10-|
|-10--10-10--10-10-12-12-12-12-10-10-10-10-|

Thats it. If u have any corrections then write them. Id be happy 2 change it






Like us on Facebook