Stronger Tab - Pitchshifter






Band - Pitchshifter
Song - Stronger
Album - Deviant
Tabbed - by DEREKD


verse: clean
-------------------------------------------------------------|
-------------------------------------------------------------|
-------------------------------------------------------------| "all palm muted"
-------------------------------------------------------------|
-0-1-2-1-0-1-2-1-0-1-2-1-------------------------------------|
-------------------------5-4-3-------------------------------|

lead(wah):heres that little lead in the background
-------------------------------------------------------------|
-------------------------------------------------------------|
-13^-13-12---------------------------------------------------|
-------------------------------------------------------------|
-------------------------------------------------------------|
-------------------------------------------------------------|

chorus: same thing as verse 1 but just use distortion
-------------------------------------------------------------|
-------------------------------------------------------------|
-------------------------------------------------------------|
-------------------------------------------------------------|
-0-1-2-1-0-1-2-1-0-1-2-1-------------------------------------|
-------------------------5-4-3-------------------------------|

chorus:2
-------------------------------------------------------------|
-------------------------------------------------------------|
--------------3-4-3-4----------------------------------------|
-11--9--4--2-2-----------------------------------------------|
-11--9--4--2-------------------------------------------------|
--9--7--2--0-------------------------------------------------|






Like us on Facebook