Subject To Status Tab - Pitchshifter






"Subject to Status" by Pitch Shifter (www.pitchshifter.com)

tuning - high to low: DAFCGD (down 1 whole step)

note: i'm sure the clean intro guitar is right, but i'm not so sure
about the other parts. this file will be updated

bass intro:
F ||---------------------------------|
C ||-6-6-6-5-5-5-3-3-3-0-0-0-0-0-0-0-|
G ||---------------------------------|
D ||---------------------------------|

clean intro guitar
d ||---------------------------------|
A ||---------------------------------|
F ||-----7-----------6---------------|
C ||-0-5-----------------------------|
G ||---------------------------------|
D ||---------------------------------|

main guitar riff
d ||---------------------------------|
A ||---------------------------------|
F ||---------------------------------|
C ||-6-6-6-5-5-5-3-3-3-0-0-0-0-0-0-0-|
G ||---------------------------------|
D ||---------------------------------|






Like us on Facebook