Triad Tab - Pitchshifter






"Triad" by Pitch Shifter
from Desensitized ('93)

tuning - high to low DAFCGD (down 1 whole step)

these riffs are most of the song: there are a few slight variations,
but they're pretty obvious and easy to figure out.


intro riff    (palm muting)
d |----------------------------------|
A |----------------------------------|
F |----------------------------------|
C |----------------------------------|
G |-2-2---2---2---2---2-8---8---8----|
D |-0-0---0---0---0---0-6---6---6----|
pm  . .   .   .   .   .


main riff
d |----------------------------------|
A |----------------------------------|
F |----------------------------------|
C |---------------7------------------|
G |-2-2---2-8-----5-------5---4---5--|
D |-0-0---0-6---0-----0---3---2---3--|
pm  . .   .     .     .


these are played over the main riff; you can figure out the timing
d |------------|------------|
A |------------|-7///----| 






Like us on Facebook