Supernova Goes Pop (ver2) Bass Tab - Powerman 5000




Supernova Goes Pop
Tabbed by Danny Passera
Song by Powerman 5000 off the album Tonight the Stars Revolt
Original tab by: Dorian27 bassist from PM5K
Main Riff
G------------------------------
D------------------------------
A------------------------------
D-0-0-2-2-2-0-0-5-5-5-0-0-0-32-

Chorus
G------------------------------
D------------------------------
A-4-4-4------------------------
D-------5-5-5-6-6-6-2-2-2-0-0-0-0-
This is the part where he goes "super nova, your super nova...
your super goes pop"....
G------------------------------
D------------------------------
A------------------------------
D--0-0-0--------------------------

ĂŽnscrie-te la newsletter


Join the ranks ! LIKE us on Facebook