When Worlds Collide (ver4) Tab - Powerman 5000




Powerman 5000, When Worlds Collide.
Tabbed by Pat, kg2k86pnl14@aol.com.
  
This Is A Really Awesome Song And Its Really Easy To Play This Is The Correct Version All The Others Are Off A Little

Drop D Tuning

Verse
E|------------|
B|------------|
G|------------|
D|------------|
A|-4-4-4-4----| 
D|---------5--|

Main Riff
E|--------------------------------------------------|
B|--------------------------------------------------|
G|--------------------------------------------------|
D|-5-5-3-5-3-5--5-5-3-5-3-5--5-5-3-5-3-5--5-5-3-5-8-|
A|-5-5-3-5-3-5--5-5-3-5-3-5--5-5-3-5-3-5--5-5-3-5-8-| 
D|-5-5-3-5-3-5--5-5-3-5-3-5--5-5-3-5-3-5--5-5-3-5-8-|

Then When Its Like "Are You Ready, Yeah Im Ready, Thats The End Of All Time" It Is This:

E|-------------------------------------------------|
B|-------------------------------------------------|
G|-------------------------------------------------|
D|-11-11-11-11-11-11-11-11-10-10-10-10-10-10-10-10|
A|-11-11-11-11-11-11-11-11-10-10-10-10-10-10-10-10-|
D|-11-11-11-11-11-11-11-11-10-10-10-10-10-10-10-10-|

E|-----------------------|
B|-----------------------|
G|-----------------------|
D|-5-5-3-5-3-5-5-5-3-5-8-|
A|-5-5-3-5-3-5-5-5-3-5-8-|
D|-5-5-3-5-3-5-5-5-3-5-8-|

Thats It! Have Fun!


-
-






 
:: Ultimate Guitar Archive :: 
http://www.ultimate-guitar.com 


ĂŽnscrie-te la newsletter


Join the ranks ! LIKE us on Facebook