When Worlds Collide Bass Tab - Powerman 5000




PowerMan 5000
When Worlds Collide
Tabbed By Luke Stevens
1
G----------------------------------------------- 
D-----------------------------------------------
A---3-3-3-3------------------------------------- 
E------------2---2-2-2-0-2-2--------------------

2 
G----------------------------------------------- 
D----------------------------------------------- 
A---3-3-3-3------------------------------------- 
E------------2----------------------------------

3 
G----------------------------------------------- 
D----------------------------------------------- 
A---3-3-3-3------------------------------------- 
E------------2---2-2-2-0-2-0-2------------------ 

4
G---------------------------------------------------------- 
D----------------------------------------------------------
A--------------------------------------------------------0-
E----2-2-0-2-0-2--2-2-0-2-0-2--2-2-0-2-0-2-2-2-0-2---------


5
G---------------------------------------------------------- 
D----------------------------------------------------------
A-3-3-3-3-3-3-3-3--2-2-2-2-2-2-2-2----------------------0--
E--------------------------------------2-2-0-2-0-2-2-2-0-2-

6
G-------------------------------------------------------------- 
D--------------------------------------------------------------
A-3-3-3-3-3-3-3-3--2-2-2-2-2-2-2-2-----------------------------
E--------------------------------------2-2-0-2-0-2-2-2-0-2-5

ĂŽnscrie-te la newsletter


Join the ranks ! LIKE us on Facebook