Lets Go Crazy Intro Tab - Prince






-------------------------------------------------------------------------------
     Let's Go Crazy- Prince
-------------------------------------------------------------------------------
Tabbed by: Graham
Email: grahamjoyner@nc.rr.com

Tuning: Standard

 Simple little part, if anyone figures out the rest of the song please email me

e|----------------------------------------------------------------------------------|
B|----------------------------------------------------------------------------------|
G|----------------------------------------------------------------------------------|
D|-----------2---2h4-------x4-------------------------------------------------------|
A|-----0h2h4---4--------------------------------------------------------------------|
E|-2-2------------------------------------------------------------------------------|

e|---------------------------------------------------------------------------------------|
B|---------------------------------------------------------------------------------------|
G|-3-3-4-4-------------------------------------------------------------------------------|
D|-3-3-4-4--------2---2h4----------------------------------------------------------------|
A|-1-1-2-2--0h2h4---4--------------------------------------------------------------------|
E|---------------------------------------------------------------------------------------|

ĂŽnscrie-te la newsletter


Like us on Facebook