Raspberry Beret Intro Tab - Prince






Song:RASPBERRY BERET
Artist:PRINCE
Album:AROUND THE WORLD IN A DAY
Tab:LUNAR PIPER

CHORDS USED
Ax 0 2 2 2 0
G3 2 0 0 3 3
D/F#2 x 0 2 3 x
Dx x 0 2 3 2
E0 2 2 1 0 0
F#m2 4 4 2 2 2

INTRO
|-----------------|---0-------------|-----------------|-----------------|
|-2---2-0---2-0-3-|-----2-0---2-----|---0---0---0-0---|-0---0-2---------|
|-----------------|-------------2---|-2---2---2-----2-|---2-------------|
|-----------------|-----------------|-----------------|-----------------|
|-----------------|-----------------|-----------------|-----------------|
|-----------------|-----------------|-----------------|-----------------|

Fill 1
|-----------------|
|-0---0-2---2-3-2-|
|---2-------------|
|-----------------|
|-----------------|
|-----------------| 

Fill 2
|-----5-4---2-----|
|-3-5---------5-3-|
|-----------------| 
|-----------------| 
|-----------------| 
|-----------------|

ĂŽnscrie-te la newsletter


Like us on Facebook