Under The Cherry Moon Tab - Prince






Song:UNDER THE CHERRY MOON
Artist:PRINCE
Album:PARADE
Tab:LUNAR PIPER

Piano Arranged For Guitar

|-----7-|-7------|-----7-|-7------|-----7-|-7------|
|-7-8---|-8------|-7-8---|-8------|-7-8---|-8------|
|-------|-9------|-------|-9------|-------|-9------|
|-------|-9------|-------|-9------|-------|-9------|
|-------|-7------|-------|-7------|-------|-7------|
|-------|--------|-------|--------|-------|--------|

|-----7-|-7------|-0-2-3-|-2-----|-0-2-3-|-2-----|
|-7-8---|-8------|-------|-3-----|-------|-3-----|
|-------|-9------|-------|-2-----|-------|-2-----|
|-------|-9------|-------|-0-----|-------|-0-----|
|-------|-7------|-------|-------|-------|-------|
|-------|--------|-------|-------|-------|-------|

|-6-7-9-|-10----|-10-9-8-|-7-----|-------|-5-4-3-2-----|
|-6-7-9-|-10----|-10-9-8-|-7-----|-------|-5-4-3-2-----|
|-6-7-9-|-10----|-10-9-8-|-7-----|-------|-6-5-4-3-----|
|-------|-------|--------|-------|-------|-------------|
|-------|-------|--------|-------|-------|-------------|
|-------|-------|--------|-------|-------|-------------|

|-------------|-------||
|-6-5-4-3---2-|-3-----||
|-5-4-3-0---0-|-2-----||
|-7-6-5-2---2-|-4-----||
|-------------|-------||
|-------------|-------||

ĂŽnscrie-te la newsletter


Like us on Facebook