One Man Army Tab - Pro-Pain






-------------------------------------------------------------------------------
     ONE MAN ARMY - Pro-Pain
-------------------------------------------------------------------------------
Tabbed by: RAY CUNNINGHAM
Email: evilneverdies716@gmail.com

Tuning: D G C F A D

Intro 3x
|--------------------------------------|
|--------------------------------------|
|-4-4-2-4------------4-4-5-4-----------|
|-2-2-0-2--22-22222--2-2-3-2--22-22222-|
|----------22-22222-----------22-22222-|
|----------00-00000-----------00-00000-|
           .. .....           .. .....
4th Time
|-----------------------------|
|-----------------------------|
|-4-4-2-4------------4-4-2-4-|
|-2-2-0-2--22-22222--2-2-0-2-|
|----------22-22222-----------|
|----------00-00000-----------|
           .. .....

|----------------------|
|----------------------|
|----------------------|
|----------------------|
|----7-5-----4---3-----|
|0-0-----0-0---0---0-0-|

Verse
|----------------|
|----------------|
|----------------|
|2-----------3-3-|
|2-----------3-3-|
|0-----------1-1-|

|--------------------------------|
|--------------------------------|
|--------------------------------|
|2-2-2-2-9-9-9-9-8-8-8-7-7-7-5-4-|
|2-2-2-2-9-9-9-9-8-8-8-7-7-7-5-4-|
|0-0-0-0-7-7-7-7-6-6-6-5-5-5-3-2-|






Like us on Facebook