Switchblade Knife Bass Tab - Pro-Pain






-------------------------------------------------------------------------------
     Switchblade Knife - Pro-Pain
-------------------------------------------------------------------------------

Tabbed By : Alex (theberzerker!!!)
e-mail: alexdees@hotmail.com

Tuning: Standard Drop D GDAD

NOTE:
This is supposed to be played on a five string bass but i don't have one so i have made 
for a 4 string bass.

Intro 1:

D|-----------------------------------------------------------------------------|
A|-----------------------------------------------------------------------------|
D|-2-2-2-2-2-2-2-2-2-2-2-2---5-5-5-5-5-5-5-5-----------------------------------|
G|------------------------------------------5-5-5-5-5---2-2-2-2-2-2-2-2-2-2-2-2|

Intro 2:

D|-----------------------------------------------------------------------------|
A|-----------------------------------------------------------------------------|
D|---2----------------5--------------------------------------------------------|
G|-----------------------------5-------2---------------------------------------|

Pre-Verse:

D|-----------------------------------------------------------------------------|
A|-----------------------------------------------------------------------------|
D|-----------------------------------------------------------------------------|
G|--2-2-0-2------2-3-2-0-3-2--2-2-0-2------------------------------------------|

Verse:

D|---------------------------------------------------------------------------------|
A|---------------------------------------------------------------------------------|
D|---------------------------------------------------------------------------------|
G|--2-2-0-2--2-2-2-2-2-2-2-2-2-2--2-3-2-0-3-2--(2-2-0-2--2-2-2-2-2-2-2)------------|
Miss part in brackets out last time

Pre-Chorus:

D|-----------------------------------------------------------------------------|
A|-----------------------------------------------------------------------------|
D|-----------------------------------------------------------------------------|
G|--2------------3------------5------------------------------------------------|

Chorus:

D|-----------------------------------------------------------------------------|
A|-----------------------------------------------------------------------------|
D|-----------------------------------------------------------------------------|
G|--2-0-2-5-5-3-0-2-5-5-3-3----------------------------------------------------|

Outro:

D|-----------------------------------------------------------------------------|
A|-----------------------------------------------------------------------------|
D|----------------------------------------2-3-2-0-5-2-3-2-5-5------------------|
G|--2-------------3------------5-----------------------------------------------|

Intro 1    x3
Intro 2    x1
Pre-Verse  x2
Verse      x4
Pre-Chorus x1
Chorus     x4
Pre-Verse  x2
Verse      x4
Pre-Chorus x1
Chorus     x4
Intro 1    x3
Intro 2    x1
Verse      x4  (During Solo)
Pre-Chorus x1
Chorus     x4
Outro      x1

| /  slide up
|   slide down
| h  hammer-on
| p  pull-off
| ~  vibrato
| +  harmonic
| x  Mute note
===============================================================================






Like us on Facebook