Medusa Intro Tab - Psyopus






Daniel Thomsson

This is just the *ucking intro s**t man.. Sorry if it's hard to see, but, aaa yeah, fix 
it your own, heres the intro.. if you spot any misstakes ou can email me, 
cannabis@hotmail.se or it's cannabis@live.se :D


Psyopus
Medusa (Bara Intro)

|----------------------------------|
|----------------------------12-13-|
|-9-10-------9----10----9----------|
|--------------2----2---2-------|
|------7-8-7-----------------------|
|----------------------------------|


-------------------------------------|------------------------------------|
-------------------10-12-15-17-10-12-|15-17-10-12-------------------------|
9-10-------9----10-------------------|------------9-10-------9----10----9-|
-------------2----------------------|-----------------7-8-7---2----2---|
-----7-8-7---------------------------|------------------------------------|
-------------------------------------|------------------------------------|


------------------------15-17-19-15-------|------19-24-19-------------------------|
------------18-17-13-15-------------17----|---20----------20----------------------|
16-17-14-16----------------------------16-|21----------------9-10-------9----10---|
------------------------------------------|-------------------------------2----2-|
------------------------------------------|-----------------------7-8-7-----------|
------------------------------------------|---------------------------------------|


--------------------------------|------------------20-------------20-------------|
----12-13--------------------10-|12-15-17-------17-------------17-------------17-|
9---------9-10-------9----10----|---------14-16----17-14-16-14----17-14-16-14----|
--2--------------------2-------|---------------15-------------15-------------15-|
---------------7-8-7------------|------------------------------------------------|
--------------------------------|------------------------------------------------|


20-------------20-------------20-------------20-------------20-|
------------17-------------17-------------17-------------17----|
17-16-14-17----17-14-16-14----17-14-16-14----17-14-16-14----17-|
------------15-------------15-------------15-------------15----|
---------------------------------------------------------------|
---------------------------------------------------------------|


------------------------------------------------|
10-12-10-15-17-15-10-12-10-15-17-15-10-12-10-15-|
------------------------------------------------|
------------------------------------------------|
------------------------------------------------|
------------------------------------------------|


------------------------------------------------|
17-15-10-12-10-15-17-15-10-12-10-15-17-15-10-12-|
------------------------------------------------|
------------------------------------------------|
------------------------------------------------|
------------------------------------------------|

----------------------------------------------|---------------------------|
10-15-17-15-10-12-10-15-17-15-10-12-10--------|---------------------------|
---------------------------------------9-10---|----9----10---9---10---9---|
----------------------------------------------|------2----2---2----2---2-|
--------------------------------------------7-|8-7------------------------|
----------------------------------------------|---------------------------|

------------------12-13----|---12-13-12--------------------------------|
------------------------13-|13----------13-13-13/17-17h18p17-13-13-13--|
10---9---10---9---------16-|16----------16-16-------------------16-----|
---2---2----2---2----------|-------------------------------------------|
---------------------------|-------------------------------------------|
---------------------------|-------------------------------------------|







---------------------------------------------------------------------------------------------|
17-17h18p17-13-13-13/17-17h18p17-13-13-13/17-17h18p17-13-13-13/17-17h18p17-13-13-13/17h18p17-|
---------------16-------------------16-------------------16-------------------16-------------|
---------------------------------------------------------------------------------------------|
---------------------------------------------------------------------------------------------|
---------------------------------------------------------------------------------------------|


---------19-19-20-19-13-13-13-19-19-20-19-13-13-13-19-19-20-19-13-13-19-19-20-19-13-13-13-19-|
13-13-13----------------17-------------------17-------------------17----------------17-------|
---16----------------------------------------------------------------------------------------|
---------------------------------------------------------------------------------------------|
---------------------------------------------------------------------------------------------|
---------------------------------------------------------------------------------------------|


19-20-19-13-13-19-19-20-19-13-13-13-19-19----------------------------------------------------|
---------17-------------------17----------18-18-13-18-18-13-18-18-13-18-18-13-18-18-13-18-18-|
------------------------------------------21-21-16-21-21-16-21-21-16-21-21-16-21-21-16-21-21-|
---------------------------------------------------------------------------------------------|
---------------------------------------------------------------------------------------------|
---------------------------------------------------------------------------------------------|






Like us on Facebook