White Light Intro Tab - Psyopus






Standard Tuning


|-----------------------------------------|
|-----------------------------------------|
|-----------------------------------------|
|-4---------4----4------------------------|
|-3---------3----3------------------------|
|-1---------1----1------------------------|
                   
                 ^
   listen to song for timing here.

       
|----19------19------20------20---------------------------------------|
|-----------------------------------19------19-----18-------18--------|
|--------16--------------17-------------------------------------------|
|-4--------------4---------------4------16------4-------15------------|
|-3--------------3---------------3--------------3---------------------|
|-1--------------1---------------1--------------1---------------------|

        ^
this is all tapped 




  






Like us on Facebook