Drift And Die Intro (ver2) Tab - Puddle Of Mudd






another intro :-P

i saw one and tried to play it and didnt sound right

   
e|-0-0-0-0-0-0-0-0-0-0-0-0-0-0-0-0-0-0-
B|-1-1-1-0-0-0-0-0-0-1-1-1-0-0-0-0-0-0-
G|-2-2-2-2-2-2-2-2-2-2-2-2-2-2-2-2-2-2-
D|-2-2-2-2-2-2-2-2-2-2-2-2-2-2-2-2-2-2-
A|-0-0-0-0-0-0-0-0-0-0-0-0-0-0-0-0-0-0-
E|-x-x-x-x-x-x-x-x-x-x-x-x-x-x-x-x-x-x-

e|-3-3-3-3-3-3-3-3-3-3----------------
B|-2-2-2-0-0-0-0-0-0-0----------------
G|-0-0-0-0-0-0-0-0-0-0----------------
D|-0-0-0-0-0-0-0-0-0-0-3-3-3-3-3-3-3-3
A|-2-2-2-2-2-2-2-2-2-2-3-3-3-3-3-3-3-3
E|-3-3-3-3-3-3-3-3-3-3-1-1-1-1-1-1-1-1






Like us on Facebook