Famous Tab - Puddle Of Mudd






Hi this is barrett here this my first tab this is how i hear it in the song but feel 
to email me on any changes at barrett2003@hotmail.com the of the tabs are not in rythm so 
to the the song to get it right...


Intro

e|----------------------------------|
b|--666777444222--------------------|palm mute sorta wah effect
g|----------------------------------|
d|----------------------------------|
a|----------------------------------|
D|----------------------------------|

e|----------------------------------|
b|--666777444222---------333--------|
g|-----------------------222--------|
d|----------------------------------|
a|----------------------------------|
D|----------------------------------|

e|-------s----------------------------|
b|-------l----------------------------|
g|-------i----------------------------|
d|---3---d-5----3---------------------|
a|---3---e-5----3---------------------|
D|---3-----5----3---------------------|X2

Verse


e|---------------------------------------|
b|---------------------------------------|
g|---------------------------------------|
d|--0--3---5---7-------------------------|
a|--0--3---5---7-------------------------|
D|--0--3---5---7-------------------------|

Pre chorus

e|-----------------------------------------------|
b|-----------------------------------------------|
g|-----------------------------------------------|
d|---6---10--6---6---10--10----------------------|
a|---4---8---4---4---8---8-----------------------|
D|-----------------------------------------------|

Chorus

e|------------------------------------------|
b|--3-----------------3---------------------|
g|--2-3---10---8--6---2---------------------|
d|----1---8----6--4---0---------------------|
a|----1---8----6--4---0---------------------|
D|----1---8----6--4---0---------------------|






Like us on Facebook