Psycho Tab - Puddle Of Mudd






Intro, Verse:

E|--------------------------------------------------|
B|---------------------9----------------------------|
G|----9----9------9----9------5----5------5----7----|
D|----9----9------9-----------5----5------5----7----|
A|-7-----7-----7-----7-----3-----3-----3-----5------|
E|--------------------------------------------------|

Chorus:

E|--------------|
B|--------------|
G|-9------------|
D|-9--10--12----|
A|-7--10--12----|
E|----10--12----|






Like us on Facebook