She Hates Me (ver10) Tab - Puddle Of Mudd






Artist: Puddle of Mudd
Song: She Hates Me
Album: Come Clean
Tabbed by: gocaps99 (Joed)

This is a really great song. It is really easy to play once you figure it out.

INTRO
E------------------------------------------------------------------
B------------------------------------------------------------------
G----------3-----------5---------------3------------5--------------
D---3-------0---5-------0------3--------0---5-------0--------------
A------0-1--------0-3------------0-1----------0-3------------------
E--1-----------3---------------1------------3----------------------
VERSE 1

met a girl, though she was grand,
E------------------------------------------------------------------
B------------------------------------------------------------------
G----------3-----------5---------------3------------5--------------
D---3-------0---5-------0------3--------0---5-------0--------------
A------0-1--------0-3------------0-1----------0-3------------------
E--1-----------3---------------1------------3----------------------

 fell in love, and found out 1st hand
E-------------------------------------------------------------------
B-------------------------------------------------------------------
G----------3-----------5---------------3------------5---------------
D---3-------0---5-------0------3--------0---5-------0---------------
A------0-1--------0-3------------0-1----------0-3-------------------
E--1-----------3---------------1------------3-----------------------

went well for a week or two
E--------------------------------------------------------------------
B--------------------------------------------------------------------
G----------3-----------5---------------3------------5----------------
D---3-------0---5-------0------3--------0---5-------0----------------
A------0-1--------0-3------------0-1----------0-3--------------------
E--1-----------3---------------1------------3------------------------

 then it all came unglued
E--------------------------------------------------------------------
B--------------------------------------------------------------------
G----------3-----------5---------------3------------5----------------
D---3-------0---5-------0------3--------0---5-------0----------------
A------0-1--------0-3------------0-1----------0-3--------------------
E--1-----------3---------------1------------3------------------------
PRECHORUS
in a trap, trip I cant grip. Never thought Id be the one to slip
E-------------------------------------------------------------------
B-------------------------------------------------------------------
G----------3-3------------5-5-------------3-3--------5-5------------
D---3--3--3-3---5-5-----5-5-----3--3---3-3--5-5--5-5----------------
A---3--3--1-1---5-5-----3-3-----3--3---1-1--5-5--3-3----------------
E---1--1---------3-3--------------1--1---------3--3-----------------

then I started to realize, I was liven one big lie. 
E-------------------------------------------------------------------
B-------------------------------------------------------------------
G----------3-3------------5-5-------------3-3--------5-5------------
D---3--3--3-3---5-5-----5-5-----3--3---3-3--5-5--5-5----------------
A---3--3--1-1---5-5-----3-3-----3--3---1-1--5-5--3-3----------------
E---1--1---------3-3--------------1--1---------3--3-----------------

CHORUS

she f**kin hates me, trust; she f**kin hates me, la la love 
E-------------------------------------------------------------------
B-------------------------------------------------------------------
G----------3-3------------5-5-------------3-3--------5-5------------
D---3--3--3-3---5-5-----5-5-----3--3---3-3--5-5--5-5----------------
A---3--3--1-1---5-5-----3-3-----3--3---1-1--5-5--3-3----------------
E---1--1---------3-3--------------1--1---------3--3-----------------

I tried to hard and she tore my feelins like I had none, and ripped them away
E-------------------------------------------------------------------
B-------------------------------------------------------------------
G----------3-3------------5-5-------------3-3--------5-5------------
D---3--3--3-3---5-5-----5-5-----3--3---3-3--5-5--5-5----------------
A---3--3--1-1---5-5-----3-3-----3--3---1-1--5-5--3-3----------------
E---1--1---------3-3--------------1--1---------3--3-----------------

VERSE 2

 she was queen for about an hour. After that sh** got sour
E-------------------------------------------------------------------
B-------------------------------------------------------------------
G----------3-3------------5-5-------------3-3--------5-5------------
D---3--3--3-3---5-5-----5-5-----3--3---3-3--5-5--5-5----------------
A---3--3--1-1---5-5-----3-3-----3--3---1-1--5-5--3-3----------------
E---1--1---------3-3--------------1--1---------3--3-----------------

she took all I ever had, no sign of guilt, no felling bad, no.
E-------------------------------------------------------------------
B-------------------------------------------------------------------
G----------3-3------------5-5-------------3-3--------5-5------------
D---3--3--3-3---5-5-----5-5-----3--3---3-3--5-5--5-5----------------
A---3--3--1-1---5-5-----3-3-----3--3---1-1--5-5--3-3----------------
E---1--1---------3-3--------------1--1---------3--3-----------------

PRECHORUS
CHORUS

SOLO  (SAME AS CHORUS)

INTRO

thats my story, as you see, learned my lesson and so did she
E-------------------------------------------------------------------
B-------------------------------------------------------------------
G----------3-----------5---------------3------------5---------------
D---3-------0---5-------0------3--------0---5-------0---------------
A------0-1--------0-3------------0-1----------0-3-------------------
E--1-----------3---------------1------------3-----------------------

now its over and Im glad, cause Im a fool for all Ive said
E-------------------------------------------------------------------
B-------------------------------------------------------------------
G----------3-----------5---------------3------------5---------------
D---3-------0---5-------0------3--------0---5-------0---------------
A------0-1--------0-3------------0-1----------0-3-------------------
E--1-----------3---------------1------------3-----------------------

CHORUS

La la la la la la la la la love trust  *(lyrics 3x)*
E------------------------------------------------------------------------------
B------------------------------------------------------------------------------
G---------3-3------------5-5-------------3-3--------5-5---------3-3-------5-5--
D--3--3--3-3---5-5-----5-5-----3--3---3-3--5-5--5-5---3-3--3-3--5-5--5-5--5-5--
A--3--3--1-1---5-5-----3-3-----3--3---1-1--5-5--3-3---3-3--1-1--5-5--3-3--3-3--
E--1--1---------3-3--------------1--1---------3--3--------1-1--------3-3-------

She hates me!

End on F5 (power)






Like us on Facebook