Sydney Tab - Puddle Of Mudd






Band- Puddle Of Mudd
Song- Sydney

(Dropped D Tuning)


Verse

E|----------------|
B|----------------|
G|10---7----------|
D|10---7---10---5-|
A|8----5---10---5-|
D|---------10---5-|

Pre Chorus

E|---------|
B|---------|
G|5---7----|
D|5---7----|
A|3---5----|
D|---------|


Chorus

E|----------------|
B|----------------|
G|----------------|
D|5---10---7---9--|
A|5---10---7---9--|
D|5---10---7---9--|
-This is a very vauge tab... Jus to get u guys a lil lead.. Im not too sure on the
Chorus. I think the Bared 7 is something else... im not sure what. Any Help would be
awesome. Thanks Guys. Rock On.






Like us on Facebook