Get Up Bass Tab - Quietdrive




Quietdrive - Get Up

Intro - guitar

Verse                                                               x2
G|--------------------------------------------------------------------|
D|--------------------------------------------------------------------|
A|-888888888888888883333333333333333----------------------------------|
E|----------------------------------555555555555555533333333333333333-|

Pre Chorus
G|--------------------------------------------------------------------|
D|--------------------------------------------------------------------|
A|-88-88-88-88-833-33-33-33-3--------------------------8888888888888--|
E|---------------------------55-55-55-55-533-33-33-33-3---------------|

Chorus                                                              x2
G|--------------------------------------------------------------------|
D|--------------------------------------------------------------------|
A|-3333333333333333---------------------------------88888888888888888-|
E|-----------------555555555555555533333333333333333------------------|

Bridge
G|---------------|
D|---------------|
A|----55-57-8~~--|
E|-55------------|

Rest

Verse 2
G|--------------------------------------------------------------------|
D|--------------------------------------------------------------------|
A|-888888888888888883333333333333333----------------------------------|
E|----------------------------------555555555555555533333333333333333-|

Pre Chorus
G|--------------------------------------------------------------------|
D|--------------------------------------------------------------------|
A|-88-88-88-88-833-33-33-33-3--------------------------8888888888888--|
E|---------------------------55-55-55-55-533-33-33-33-3---------------|

Rest

Chorus                                                              x2
G|--------------------------------------------------------------------|
D|--------------------------------------------------------------------|
A|-3333333333333333---------------------------------88888888888888888-|
E|-----------------555555555555555533333333333333333------------------|

Bridge
G|----------------------------|
D|----------------------------|
A|----55-57-8888888888888888--|
E|-55-------------------------|

G|---------------|
D|---------------|
A|----55-57-8~~--|
E|-55------------|
                                                                   x2
G|--------------------------------------------------------------------|------------------|
D|--------------------------------------------------------------------|------------------|
A|-888888888888888883333333333333333----------------------------------|-8888888888888888-|
E|----------------------------------555555555555555533333333333333333-|------------------|

Chorus                                                              x2
G|--------------------------------------------------------------------|
D|--------------------------------------------------------------------|
A|-3333333333333333---------------------------------88888888888888888-|
E|-----------------555555555555555533333333333333333------------------|

G|----------------------------|
D|----------------------------|
A|----55-57-8888888888888888--|
E|-55-------------------------|

G|---------------|
D|---------------|
A|----55-57-8~~--|
E|-55------------|

ĂŽnscrie-te la newsletter


Join the ranks ! LIKE us on Facebook