Rush Together Tab - Quietdrive




Quietdrive - Rush Together (intro)

tabbed by Airdog625
Standard Tuning

Verse (smooth & quick flat-pick)
e-----------------------------------------------------------------------|
b--------4---------------4---------------4---------------4--------------|
g------3---3---3-------3---3---3-------3---3---3-------3---3---3--------|
d----5-------5---5---5-------5---5---5-------5---5---5-------5---5------|
a--6---------------6---------------3---------------3--------------------|
E-----------------------------------------------------------------------|


e-----------------------------------------------------------------------|
b--------4---------------4---------------4---------------4--------------|
g------3---3---3-------3---3---3-------3---3---3-------3---3---3--------|
d----5-------5---5---5-------5---5---5-------5---5---5-------5---5------|
a-----------------------------------------------------------------------|
E--6---------------6---------------4---------------4--------------------|


1st Chorus:

e-----------------------------------------------------------------------|
b--------4---------------4---------------4---------------4--------------|
g------3---3---3-------3---3---3-------3---3---3-------3---3---3--------|
d----5-------5---5---5-------5---5---5-------5---5---5-------5---5------|
a--6--------------------------------------------------------------------|
E------------------6---------------4---------------4--------------------|


When distortion & throughout the rest of the song:
(rhythm is not hard to figure out on your own)

e-----I-----------------I------------------|
b-----I-----------------I------------------|
g-----I--8--------------I--5---------------|
d--6--I--8---8---6---8--I--5---8---6---8---|
a--6--I--6---8---6---8--I--3---8---6---8---|
E--4--I------6---4---6--I------6---4---6---|

ĂŽnscrie-te la newsletter


Join the ranks ! LIKE us on Facebook