Time After Time Bass Tab - Quietdrive




-------------------------------------------------------------------------------
     Time After Time - Quietdrive
-------------------------------------------------------------------------------
Tabbed By: Valerie L.
e-mail: iloled@yahoo.com
Tuning: standard

one of my favorite covers.   who doesn't love Cyndi Lauper?

Intro
G|-------------------------|
D|-------------------------|
A|33~---33~----------------|
E|------------00~---11~----| x2

Verse
G|-------------------------------|
D|-------------------------------|
A|33-3--3-33-3-------------------|
E|-------------00-0-0~--11-1-1~--|

pre-Chorus
G|------------------------------------------------------------|
D|------------------------------------------------------------|
A|333-55555-222-33333-333-55555----------333-55555-222-33333--|
E|------------------------------11111111----------------------|

Chorus
G|---------------------------------------|
D|---------------------------------------|
A|-----------------------------333333333-|
E|33333333-55555555-111-33333------------| x2

Post Verse
G|----------------|
D|----------------|
A|33-2h33-33-2h33-|
E|----------------|

Verse x2
Pre-Chorus x1
Chorus x2

Bridge
G|------------------------------------|
D|------------------------------------|
A|------------------------------------|
E|11111111-33333333-00000000-11111111-| x2

G|--------------------------------------|
D|--------------------------------------|
A|----------------------------333333333-|
E|33333333-55555555-111-33333-----------| x2

Pre-Chorus x1
Chorus x4

ĂŽnscrie-te la newsletter


Join the ranks ! LIKE us on Facebook