Time After Time Intro (ver2) Tab - Quietdrive




pre-chorus

E|-----------------------------------------------------------------------|
B|-----------------------------------------------------------------------|
G|----5-5-5---7-7-7--4-4-4--5-5-5-5-5--------------5-5-5--7-7-7--4-4-4---|
D|----5-5-5---7-7-7--4-4-4--5-5-5-5-5--3-3-3-3-3-3-5-5-5--7-7-7--4-4-4---|
A|----3-3-3---5-5-5--2-2-2--3-3-3-3-3--3-3-3-3-3-3-3-3-3--5-5-5--2-2-2---|
E|-------------------------------------1-1-1-1-1-1-----------------------|

E|----------------------------------------------------------------|
B|----------------------------------------------------------------|
G|----------------------------------------------------------------|
D|---5-5-5--------------------------------------------------------|
A|---5-5-5--------------------------------------------------------|
E|---3-3-3--------------------------------------------------------|

Chorus

E|----------------------------------------------------------------|
B|----------------------------------------------------------------|
G|--------------------------------------------5-5-5-5-5-5---------|
D|--5-5-5-5-5-5-5--7-7-7-7-7-7--3-3-3--5-5-5--5-5-5-5-5-5---------|
A|--5-5-5-5-5-5-5--7-7-7-7-7-7--3-3-3--5-5-5--3-3-3-3-3-3---------|
E|--3-3-3-3-3-3-3--5-5-5-5-5-5--1-1-1--3-3-3----------------------|

 i havent figured out the intro but im workin on it. my first tab so any tips would be good.

ĂŽnscrie-te la newsletter


Join the ranks ! LIKE us on Facebook