Dust Tab - Rage






Band:  Rage
Album: Reflections of a Shadow
Song:  Dust
Copyright (c)  (Noise) (1990)
Version 1.0 - (19/05/06)


Transcribed By: Steve
Email:          stephen.elvidge1@ntlworld.com


.  - palm mute           /  - slide up to
  - slide down to       ~  - vibrato
h  - hammer on           b  - Bend
p  - pull off            Suffixes for bend
t  - tap                 f  - full bend    h - half bend
ph - pinched harmonic    q  - quarter bend t - tap bend
                         p  - pre bend
*  - see comment         ^  - Hold bend    r release bend
x  - Stuccatto           ~  - vibrato bend
,  - slight palm mute    () - ghost note, sustained note
"  - tremolo note         - harmonic

Tuning E A D G B E

 Intro

 Acoustic guitar(let notes ring out)

|-------------------------------------------------0-------|
|---------0-------------0-------------0-------------3-----|
|---0---3---3-----0---3---3-----0---3---3-----0-------0---|
|-----2-------2-----2-------2-----2-------2-----2-------2-|
|-0-------------------------------------------------------|
|---------------3-------------1-------------3-------------| Rpt 3 X

|-------------------------------------------|
|---------0-------------0-------------0-----|
|---0---3---3-----0---3---3-----0---3---3---|
|-----2-------2-----2-------2-----2-------2-|
|-0-----------------------------------------|
|---------------3-------------1-------------|

 Distorted

 Verse
                                  [--PM--]
|-------------------------------------------------------------------|
|-------------------------------------------------------------------|
|-------------------------------------------------------------------|
|-5--(3)--4--(4)--2--(2)--2--(2)----------5--(5)-/10-(10)----------|
|-3--(3)--2--(2)--0--(0)--0--(0)--3-3-3-3-3--(3)-/8--(8)--5--(5)---|
|----------------------------------------------------------3--(3)---|

 Guitar 1
               [--PM--]
[-------------------------------------------------------|
[-------------------------------------------------------|
[-------------------------------------------------------|
[-2--(2)--2--4/--------5--(5)-/10-(10)-5--(5)--4--(4)--|
[-0--(0)--0--2/3-3-3-3-3--(3)-/8--(8)--3--(3)--2--(2)--|
[-------------------------------------------------------|
[Guitar 2                                ~~~~~~~~~~~~~~~
[-------------------------------------------------------|
[-------------------------------------------------------|
[-------------------------------------------------------|
[-------------------------------------------------------|
[---------------------------------------3-------2-------|
[-------------------------------------------------------|

 Chorus

|--------------------------------------------------|
|--------------------------------------------------|
|--------------------------------------------------|
|-7--(7)--7--9/10-(10)-10102--(2)--2--4/5--(5)----|
|-5--(5)--5--7/8--(8)--8-8-