Sonne (ver2) Tab - Rammstein






Artist: RAMMS+EIN
Album: MUTTER
Song: Sonne
Tab by: TrinityMasaki13
Trinitymasaki13@aol.com

This is my second tab EVER so go easy on me.  My only other one is 
Rammstein's song Seemann.ver2.  I spent about 10 mins. Learning this 
song and 2 hours tabbing it!  I was looking on the site and the 
other versions are okay but not right. The INRTO is Keyboard but 
I can't wait for the guitar so I tabbed it for guitar. As for the 
song I use a Hyper Metal Dist Pedal. As for the Chorus I use a little dist.
The OUTRO (Woman singing) I use a DOD Chorus Pedal. This is a very
simple song once you sit down and really listen.  If you have any 
questions or would like to request a RAMMS+EIN song to be
tabbed e-mail me! Thanks a lot! ENJOY!

^ = BEND 
/ = SLIDE
       PM = PLAM MUTED

INTRO PM
e|-----------------------------------------------------------------|
B|-----------------------------------------------------------------|
G|-----------------------------------------------------------------|
D|-----------------------------------------------------------------|
A|-----------------------------------------------------------------|
E|-006000600060006000600060006000600060006000600060006000600060006-|
Eins, zwei, drei, vier, fnf, sechs, sieben, acht
e|-----------------------------------------------------------------|
B|-----------------------------------------------------------------|
G|-----------------------------------------------------------------|
D|-----------------------------------------------------------------|
A|-----------------------------------------------------------------|
E|-000600060006^---------------------------------------------------|
Neun, aus  (All of intro is Plam Muted)


Main Riff
e|------------------------------------|
B|------------------------------------|
G|------------------------------------|
D|-0-0-6-0-6-5-0--0-0-6-0-6-5---------|
A|-0-0-6-0-6-5-0--0-0-6-0-6-5---------|
E|-0-0-6-0-6-5-0--0-0-6-0-6-5---------|

e|------------------------------------|
B|------------------------------------|
G|------------------------------------|
D|-0-0-6-0-6-5-0--0-0-6-0-5-5-5-5-----|
A|-0-0-6-0-6-5-0--0-0-6-0-5-5-5-5-----|
E|-0-0-6-0-6-5-0--0-0-6-0-5-5-5-5-----|


Chorus (Listen to song for timing)
e|------------------------------|
B|------------------------------|
G|------------------------------|
D|-4----4----4----4-------------|
A|-4----4----4----4-------------|
E|-2----2----2----2-------------|
   Eins Hier kommt die Sonne
e|------------------------------|
B|------------------------------|
G|------------------------------|
D|-9----9----9----9-------------|
A|-9----9----9----9-------------|
E|-7----7----7----7-------------|
   Zwei Hier kommt die Sonne
e|------------------------------|
B|------------------------------|
G|------------------------------|
D|-7----7----7----7-------------|
A|-7----7----7----7-------------|
E|-5----5----5----5-------------|
   Drei Sie ist der hellste Stern von allen
e|------------------------------|
B|------------------------------|
G|------------------------------|
D|-5----5----5----5-------------|
A|-5----5----5----5-------------|
E|-3----3----3----3-------------|
   Vier Hier kommt die Sonne
e|------------------------------|
B|------------------------------|
G|-9----9----9----9-------------|
D|-9----9----9----9-------------|
A|-7----7----7----7-------------|
E|------------------------------|
   Fnf Hier kommt die Sonne
e|------------------------------|
B|------------------------------|
G|------------------------------|
D|-9----9----9----9-------------|
A|-9----9----9----9-------------|
E|-9----9----9----9-------------|
   Sechs Hier kommt die sonne
e|------------------------------|
B|------------------------------|
G|------------------------------|
D|-5----5----5----5-------------|
A|-5----5----5----5-------------|
E|-5----5----5----5-------------|
   Sieben Sie ist der hellste Stern von allen

e|------------------------------|
B|------------------------------|
G|------------------------------|
D|-4----4----4----4-------------|
A|-4----4----4----4-------------|
E|-4----4----4----4-------------|
   Acht, Neun Hier kommt die Sonne
(Listen to song for the timing to strum the chords)

OUtro/Back ground of chorus (Woman singing)
E------------------------------------------ 
B----12-14-15--19--12-------12-14-15-17-14- 
G-11---------------------11---------------- 
D------------------------------------------ 
A------------------------------------------ 
E------------------------------------------
(2X)Play 2 times

E------------------------------- 
B----------------14/15-15-15/14- 
G-11^--12^-11^------------------ 
D------------------------------- 
A------------------------------- 
E-------------------------------
(2X)Play 2 times



LYRICS/SONG GUIDE:

(INTRO)
Eins, zwei, drei, vier, fnf, sechs, sieben, acht, neun, aus

(Main Riff)
Alle warten auf das Licht
frchtet euch frchtet euch nicht
die Sonne scheint mir aus den Augen
sie wird heut Nacht nicht untergehen
und die Welt zhlt laut bis zehn

(Chorus)
Eins
Hier kommt die Sonne
Zwei
Hier kommt die Sonne
Drei
Sie ist der hellste Stern von allen
Vier
Hier kommt die Sonne

(Main Riff)
Die Sonne scheint mir aus den Hnden
kann verbrennen, kann euch blenden
wenn sie aus den Fusten bricht
legt sich heiss auf das Gesicht
sie wird heut Nacht nicht untergehen
und die Welt zhlt laut bis zehn

Chorus)
Eins
Hier kommt die Sonne
Zwei
Hier kommt die Sonne
Drei
Sie ist der hellste Stern von allen
Vier
Hier kommt die Sonne

(Chorus/Outro)
Fnf
Hier kommt die Sonne
Sechs
Hier kommt die Sonne
Sieben
Sie ist der hellste Stern von allen
Acht, neun
Hier kommt die Sonne

(NO GUITAR! ONLY DRUMS ANS KEYBOARD)
Die Sonne scheint mir aus den Hnden
kann verbrennen, kann dich blenden
wenn sie aus den Fusten bricht
legt sich heiss auf dein Gesicht
legt sich schmerzend auf die Brust
das Gleichgewicht wird zum Verlust
lsst dich hart zu Boden gehen
und die Welt zhlt laut bis zehn

(Chorus/Outro)
Eins
Hier kommt die Sonne
Zwei
Hier kommt die Sonne
Drei
Sie ist der hellste Stern von allen
Vier
Und wird nie vom Himmel fallen
Fnf
Hier kommt die Sonne
Sechs
Hier kommt die Sonne
Sieben
Sie ist der hellste Stern von allen
Acht , neun
Hier kommt die Sonne

(OUTRO)






Like us on Facebook