Sonne Bass Tab - Rammstein






Song: sonne
Band:Rammstein
album:Mutter
Tabbed by Steven Warner

Now this is the correct tab! At last...

G|------------------------------------------------
D|------------------------------------------------
A|------------------------------------------------
D|0-6-0-6-5-0|0-6-0-6-0|0-6-0-6-5-0|0-6-0-6-5-5-5| x2

G|----------------------
D|----------------------
A|----------------------
D|0-6-0-6-5-0|0-6-0-6-0| x3


G|--------------------
D|---------2-2--------
A|2----2-2-----5-5-3-3
D|--------------------

G|---------------
D|----2-2--------
A|2-2-----5-5-3-3
D|---------------

G|----------------
D|2-2-------------
A|----2-2---------
D|---------5-5-4-4


G|----------------
D|2-2-------------
A|----2-2---------
D|---------5-5-4-4


G|------------------------------------------------
D|------------------------------------------------
A|------------------------------------------------
D|0-6-0-6-5-0|0-6-0-6-0|0-6-0-6-5-0|0-6-0-6-5-5-5| 

G|----------------------
D|----------------------
A|----------------------
D|0-6-0-6-5-0|0-6-0-6-0| x3


G|--------------------
D|---------2-2--------
A|2----2-2-----5-5-3-3
D|--------------------

G|---------------
D|----2-2--------
A|2-2-----5-5-3-3
D|---------------

G|----------------
D|2-2-------------
A|----2-2---------
D|---------5-5-4-4


G|----------------
D|2-2-------------
A|----2-2---------
D|---------5-5-4-4

G|---------------
D|----2-2--------
A|2-2-----5-5-3-3
D|---------------

G|---------------
D|----2-2--------
A|2-2-----5-5-3-3
D|---------------

G|----------------
D|2-2-------------
A|----2-2---------
D|---------5-5-4-4

G|----------------
D|2-2-------------
A|----2-2---------
D|---------5-5-4-4

break for a while

G|---------------
D|----2-2--------
A|2-2-----5-5-3-3
D|---------------


G|---------------
D|----2-2--------
A|2-2-----5-5-3-3
D|---------------

G|----------------
D|2-2-------------
A|----2-2---------
D|---------5-5-4-4


G|----------------
D|2-2-------------
A|----2-2---------
D|---------5-5-4-4

G|---------------
D|----2-2--------
A|2-2-----5-5-3-3
D|---------------

G|---------------
D|----2-2--------
A|2-2-----5-5-3-3
D|---------------

G|----------------
D|2-2-------------
A|----2-2---------
D|---------5-5-4-4

G|----------------
D|2-2-------------
A|----2-2---------
D|---------5-5-4-4

There you go: This tab is 100% correct!
Any comments or suggestions then E-mail me at 
Steven.Warner@dial.pipex.com
enjoy and ignore my other sonne tab!






Like us on Facebook