Spieluhr (ver2) Tab - Rammstein






SPIELHUR(PIANO TRANSLATED TO GUITAR)-RAMMSTEIN

e-----------1---0-------1----------------------------------|
b---3-----------------------3------------------------------|
g-------2-----------2-----------2--------------------------|
D----------------------------------------------------------|
A----------------------------------------------------------|
D----------------------------------------------------------|
Fig A


e-------0-|--3---1-------3---0-------0---------------------|
b---1-----|----------1-----------1-------1-----------------|
g---------|------------------------------------------------|
D---------|------------------------------------------------|
A---------|------------------------------------------------|
D---------|------------------------------------------------|
Fig B

e---1-------5---3-------5---1------------------------------|
b-------1-----------1-----------1--------------------------|
g----------------------------------------------------------|
D----------------------------------------------------------|
A----------------------------------------------------------|
D----------------------------------------------------------|
Fig C

e-----------1---0-------1----------------------------------|
b---3-----------------------3------------------------------|
g-------3-----------3--------------------------------------|
D----------------------------------------------------------|
A----------------------------------------------------------|
D----------------------------------------------------------|
Fig D

These are the three figures of this amazing song.
During the intro and in the refrain you have to play Fig A(x2), B(x2), A(x2), C and B.
During the bridge before the guitar solo you play: Fig A(x2), D(x2), B(x2) and C(x2).
If you have any doubt write me to: miguel2208@hotmail.com






Like us on Facebook