Spring (ver2) Bass Tab - Rammstein






Song: Spring
Band: Rammstein

For this song, the bass and the guitars have to be really loud and in the guitars case, full of distortion.

4 string

Intro at 0:33
F|----------------------------------------------------------------|
C|----------------------------------------------------------------|
G|-5---5---5---5---5---5---5---5---5---5---5---5---5---5---5---5--|
C|----------------------------------------------------------------| x2

F|----------------------------------------------------------------|
C|----------------------------------------------------------------|
G|-3---3---3---3---3---3---3---3---3---3---3---3---3---3---3---3--|
C|----------------------------------------------------------------|

F|----------------------------------------------------------------|
C|----------------------------------------------------------------|
G|-3---5---5---5---5---5---5---5---5---5---5---5---5---5---5---5--|
C|----------------------------------------------------------------|

Chorus A
F|----------------------------------------------------------------|
C|----------------------------------------------------------------|
G|----------------------------------------------------------------|
C|-3---0---0---0---3---0---0---5---3---0---0---0---3---0---0---0--|

Chorus B
F|----------------------------------------------------------------|
C|----------------------------------------------------------------|
G|-3---3---3---3---3---3---3---3---3---2---2---2---2---2---2---2--|
C|----------------------------------------------------------------|

Verse A
F|----------------------------------------------------------------|
C|----------------------------------------------------------------|
G|-----5---5---5---5---5---5---5-------5---5---5---8---5---5---5--|
C|-0-------------------------------0------------------------------|

Verse B
F|----------------------------------------------------------------|
C|----------------------------------------------------------------|
G|-----3---3---3---3---3---3---3---3---3---3---3---3---3---3---3--|
C|-0--------------------------------------------------------------|

Chorus C
F|----------------------------------------------------------------|
C|----------------------------------------------------------------|
G|-3---3---3---3---3---3---3---3---3---3---3---3---3---3---3---3--|
C|----------------------------------------------------------------|

Single note
F|----------------------------------------------------------------|
C|----------------------------------------------------------------|
G|----------------------------------------------------------------|
C|-0--------------------------------------------------------------|

Bridge
F|----------------------------------------------------------------|
C|----------------------------------------------------------------|
G|----------------------------------------------------------------|
C|-8---8---8---8---8---8---8---8---7---7---7---7---7---7---7---7--|

F|----------------------------------------------------------------|
C|----------------------------------------------------------------|
G|---------------------------------0---0---0---0---0---0---0---0--|
C|-5---5---5---5---5---5---5---5----------------------------------|

F|----------------------------------------------------------------|
C|----------------------------------------------------------------|
G|-3---3---3---3---3---3---3---3---3---3---3---3---3---3---3---3--|
C|----------------------------------------------------------------|

Interlude
F|----------------------------------------------------------------|
C|----------------------------------------------------------------|
G|-----------------------------0-------3-------3------------------|
C|-----8-------7-------5-------------------------------0----------|





5 string

Intro at 0:33
G|----------------------------------------------------------------|
D|----------------------------------------------------------------|
A|-3---3---3---3---3---3---3---3---3---3---3---3---3---3---3---3--|
E|----------------------------------------------------------------|
B|----------------------------------------------------------------| x2

G|----------------------------------------------------------------|
D|----------------------------------------------------------------|
A|-1---1---1---1---1---1---1---1---1---1---1---1---1---1---1---1--|
E|----------------------------------------------------------------|
B|----------------------------------------------------------------|

G|----------------------------------------------------------------|
D|----------------------------------------------------------------|
A|-1---3---3---3---3---3---3---3---3---3---3---3---3---3---3------|
E|----------------------------------------------------------------|
B|----------------------------------------------------------------|

Chorus A
G|----------------------------------------------------------------|
D|----------------------------------------------------------------|
A|----------------------------------------------------------------|
E|-----------------------------1----------------------------------|
B|-4---1---1---1---4---1---1-------4---1---1---1---4---1---1---1--|

Chorus B
G|----------------------------------------------------------------|
D|----------------------------------------------------------------|
A|-1---1---1---1---1---1---1---1---1---0---0---0---0---0---0---0--|
E|----------------------------------------------------------------|
B|----------------------------------------------------------------|

Verse A
G|----------------------------------------------------------------|
D|----------------------------------------------------------------|
A|-----3---3---3---3---3---3---3-------3---3---3---6---3---3---3--|
E|----------------------------------------------------------------|
B|-1-------------------------------1------------------------------|

Verse B
G|----------------------------------------------------------------|
D|----------------------------------------------------------------|
A|-----1---1---1---1---1---1---1---1---1---1---1---1---1---1---1--|
E|----------------------------------------------------------------|
B|-1--------------------------------------------------------------|

Chorus C
G|----------------------------------------------------------------|
D|----------------------------------------------------------------|
A|-1---1---1---1---1---1---1---1---1---1---1---1---1---1---1---1--|
E|----------------------------------------------------------------|
B|----------------------------------------------------------------|

Single note
G|----------------------------------------------------------------|
D|----------------------------------------------------------------|
A|----------------------------------------------------------------|
E|----------------------------------------------------------------|
B|-1--------------------------------------------------------------|

Bridge
G|----------------------------------------------------------------|
D|----------------------------------------------------------------|
A|----------------------------------------------------------------|
E|-4---4---4---4---4---4---4---4---3---3---3---3---3---3---3---3--|
B|----------------------------------------------------------------|

G|----------------------------------------------------------------|
D|----------------------------------------------------------------|
A|----------------------------------------------------------------|
E|-1---1---1---1---1---1---1---1---3---3---3---3---3---3---3---3--|
B|----------------------------------------------------------------|

G|----------------------------------------------------------------|
D|----------------------------------------------------------------|
A|-1---1---1---1---1---1---1---1---1---1---1---1---1---1---1---1--|
E|----------------------------------------------------------------|
B|----------------------------------------------------------------|

Interlude
G|----------------------------------------------------------------|
D|----------------------------------------------------------------|
A|-------------------------------------1-------1------------------|
E|-----4-------3-------1-------3----------------------------------|
B|-----------------------------------------------------1----------|

Song Structure
Intro x1
Chorus A x2
Chorus B x1
Chorus A x1
Verse A x6
Verse B x1
Verse A x1
Chorus A x2
Chorus C x1
Chorus A x3
Chorus C x1
Chorus A x1
Single note x1
Verse A x6
Verse B x1
Verse A x1
Chorus A x2
Chorus C x1
Chorus A x3
Chorus C x1
Chorus A x1
Bridge x1
Single note x1
Interlude x1
Chorus A x6
Chorus C x1
Chorus A x3
Chorus C x1
Chorus A x5

There ya go!

Please rate.

Enjoy!!!






Like us on Facebook