Spring (ver2) Tab - Rammstein






-----------------------------------------------------------------------------
     Spring - Rammstein
-----------------------------------------------------------------------------
Tabbed by:Carlos Yanko
Email: yankork@hotmail.com

Esta es otra version de Spring, espero que les sea de gran utilidad , y bueno
los vuelvo a invitar si quieren formar un grupo de covers en el df arriba esta
mi correo, para alguna duda o aclaracion.
porfavor voten por mi creo que no lo hago tan mal... o si?? :)

e|------------------------------------------------------------------------|
B|------------------------------------------------------------------------|
G|------------------------------------------------------------------------|
D|-------------------0-----------------0-----------------0----------------|
A|-0--x--x--0--x--0--0--x--x--0--x--0--0--x--x--0--x--0--0--x-x-0-x-0-----|
E|-0--x--x--0--x--0--0--x--x--0--x--0--0--x--x--0--x--0--0--x-x-0-x-0-----|

e|------------------------------------------------------------------------|
B|------------------------------------------------------------------------|
G|------------------------------------------------------------------------|
D|--8--8--8--8--8--8--8--8--8--7--7--7--7--7--7--7------------------------|
A|--8--8--8--8--8--8--8--8--8--7--7--7--7--7--7--7------------------------|
E|--6--6--6--6--6--6--6--6--6--5--5--5--5--5--5--5------------------------|

e|------------------------------------------------------------------------|
B|------------------------------------------------------------------------|
G|------------------------------------------------------------------------|
D|-------------------0----------------------------------------------------|
A|-0--x--x--0--x--0--0--x--x--0--x--0-------------------------------------|
E|-0--x--x--0--x--0--0--x--x--0--x--0-------------------------------------|

e|------------------------------------------------------------------------|
B|--------------------3---------------------------------------------------|
G|-----3---5--------3-----5-----------------------------------------------|
D|---5---5--------5-----5-------------------------------------------------|
A|-3----------------------------------------------------------------------|
E|------------------------------------------------------------------------|


e|------------------------------------------------------------------------|
B|------------------------------------------------------------------------|
G|------------------------------------------------------------------------|
D|-------------------0-----------------0-----------------0----------------|
A|-0--x--x--0--x--0--0--x--x--0--x--0--0--x--x--0--x--0--0--x-x-0-x-0-----|
E|-0--x--x--0--x--0--0--x--x--0--x--0--0--x--x--0--x--0--0--x-x-0-x-0-----|

e|------------------------------------------------------------------------|
B|------------------------------------------------------------------------|
G|------------------------------------------------------------------------|
D|--8--8--8--8--8--8--8--8--8--8--8--8--8--8------------------------------|
A|--8--8--8--8--8--8--8--8--8--8--8--8--8--8------------------------------|
E|--6--6--6--6--6--6--6--6--6--6--6--6--6--6------------------------------|

y en el minuto 3:25 voy a poner las pisadas y ustedes haran las repeticones de cada pisada.  

e|--8--6---3--6--10---8---------------------------------------------------|
B|-10--8---5--8--12--10---------------------------------------------------|
G|------------------------------------------------------------------------|
D|------------------------------------------------------------------------|
A|------------------------------------------------------------------------|
E|------------------------------------------------------------------------|

el solo va igual que en la parte del principio pero esta vez con distor. 

e|------------------------------------------------------------------------|
B|--------------------3---------------------------------------------------|
G|-----3---5-(~)----3-----5-(~)-------------------------------------------|
D|---5---5--------5-----5-------------------------------------------------|
A|-3----------------------------------------------------------------------|
E|------------------------------------------------------------------------|


Espero que esta tablatura haya sido de gran utilidad.

y voten por mi, por que la anterior para mi gusto tiene errores.

ARRIVA MEXICOOOOOOOOOO!!!!!!!






Like us on Facebook