Spring (ver3) Tab - Rammstein






Thats the way I play the song for standard tuning (E-A-D-G-B-e)
Enjoy!

Main Riff  Chorus (heavy palm muting):
e|---------------------------------------------------|
B|---------------------------------------------------|
G|-6-5-5-5-5-6-5-5-5-5-6-5-5-5-5-6-5-5-5-5-6-5-5-5-5-|
D|-6-5-5-5-5-6-5-5-5-5-6-5-5-5-5-6-5-5-5-5-6-5-5-5-5-|
A|-4-3-3-3-3-4-3-3-3-3-4-3-3-3-3-4-3-3-3-3-4-3-3-3-3-|
E|-4-3-3-3-3-4-3-3-3-3-4-3-3-3-3-4-3-3-3-3-4-3-3-3-3-|

And then:
e|---------------------------------|
B|---------------------------------|
G|---------------------------------|
D|-8-8-8-8-8-8-8-8-8-7-7-7-7-7-7-7-|
A|-8-8-8-8-8-8-8-8-8-7-7-7-7-7-7-7-|
E|-6-6-6-6-6-6-6-6-6-5-5-5-5-5-5-5-|

Verse(clean):
e|---------------------------------|
B|---------------------3-----------|
G|----3----5~---------------3----5~|
D|--5----5-----------5-------------|
A|----------------3----------------|
E|---------------------------------|


Bridge (heavy palm muting):
e|-----------------------------------------|
B|-----------------------------------------|
G|-----------------------------------------|
D|-10-10-10-10-10-10-10-10-8-8-8-8-8-8-8-8-|
A|-10-10-10-10-10-10-10-10-8-8-8-8-8-8-8-8-|
E|--8-8--8-8--8--8--8--8-6-6-6-6-6-6-6-6-|

---------------------------------|
---------------------------------|
---------------------------------|
-3-3-3-3-3-3-3-3-5-5-5-5-5-5-5-5-|
-3-3-3-3-3-3-3-3-5-5-5-5-5-5-5-5-|
-1-1-1-1-1-1-1-1-3-3-3-3-3-3-3-3-|


Solo: Distorted Verse

Ends with main riff and:
e|----|
B|----|
G|-5~-|
D|-5~-|
A|-3~-|
E|-3~-|






Like us on Facebook