Stein Um Stein (ver2) Bass Tab - Rammstein






Song: Stein um Stein
Band: Rammstein
Tabbed by: cianormo

I havent seen any correct tabs for this so here ya go.

Verse
F|----------------------------------------------------------------|
C|----------------------------------------------------------------|
G|-5-------5-------5--8-----5-------5-------5-------5--8-----5----|
C|-----8-------8-------8--7-----8-------8-------8-------8--7-----8|

Pre Chorus
F|----------------------------------------------------------------|
C|----------------------------------------------------------------|
G|-5---------------5----------------5-----------------------------|
C|---------8----------------8---------------8-------3--------5----|

Chorus
F|----------------------------------------------------------------|
C|----------------------------------------------------------------|
G|-5-3---5-3---5-3-3-1---3-1---3-1-5-3---5-3---5-3-3-1---3-1---3-1|
C|-----0-----0---------0-----0---------0-----0---------0-----0----|

Interlude A
F|----------------------------------------------------------------|
C|----------------------------------------------------------------|
G|----------------------------------------------------------------|
C|-0-------8--------0-------8---7---0-------8-------0-------8----7|

Interlude B
F|----------------------------------------------------------------|
C|----------------------------------------------------------------|
G|----------------------------------------------------------------|
C|-0-------8-------0--------8-------0-------8-------3-------5-----|

Solo/Ending
F|----------------------------------------------------------------|
C|----------------------------------------------------------------|
G|-5-5---5-5---5-5-5-5---5-5---5-5-3-1---3-1---3-1-0-0---0-0---0-0|
C|-----0-----0---------0-----0---------0-----0---------0-----0----|

Song Structure:
Verse x1
Pre Chorus x1
Chorus x2
Verse x1
Pre Chorus x1
(Wait a bit)
Chorus x2
Interlude A x1
Interlude B x1
(Wait again)
Solo/Ending x8

Enjoy!!!






Like us on Facebook